Oops, an error
Loading. Please wait.

Cold Shot Tab

version 1
version 1

Intro

Whole song

Interactive

48,746 views 48 this week
5 commentsread comments
1 2 3 4 5
x 23
add to favorites
launch autoscroll
font size
0
reset
how to read this tab
guitar tuner
backing track
0:00
0:00
×
Best way to learn
"Cold Shot"
Autoscroll
slow
fast
+/-
esc
set tempo
stop
Difficulty
advanced
Standard: EADGBE or you can drop a half step: Eb Ab Db Gb Bb Eb



E:|-0---0---0---0-7-5-------------------------------
B:|-0---0---0---0-7-5-------------------------------
G:|-0---0---0---0-7-5-------------------------------
D:|---7---5---7-------------------------------------
A:|-------------------------------------------------
E:|-------------------------------------------------


Note: The open 1st,2nd,3rd strings are raked, which means you upstroke them and then
quickly mute it. This technique is difficult and requires much practice. Stevie repeats 
those notes at least 15 times then goes to this.... 


E:|-0---0---0---0-7-5--0---0---0---0-12-10-0---0--0--0-12-10--------
B:|-0---0---0---0-7-5--0---0---0---0-12-10-0---0--0--0-12-10--------
G:|-0---0---0---0-7-5--0---0---0---0-12-10-0---0--0--0-12-10-----------
D:|---7---5---7----------7---5---7----------12--10-12-------------
A:|--------------------------------------------------------------
E:|-------------------------------------------------------------


He then plays the Jimi Hendrix chord: Em7#9.... 


E:|---------------------------------------------------------------
B:|-8---8-8-8---8---8-8-8---------------------------------------
G:|-7---7-7-7---7---7-7-7-------------------------------------
D:|-6---6-6-6---6---6-6-6------------------------------------------
A:|-7---7-7-7---7---7-7-7---------------------------------------
E:|-------------------------------------------------------


Repeat First 2 Verses... I have 2 DVDs of SRV, called Live at Montreax (Montreal), I'm
99.99% positive this is right. Make your own variations, but I learned this from my 
guitar teacher who specializes in SRV, and some videos on Youtube. Thanks for reading, 
Ïood Luck! RIP Stevie Ray
Suggest correction
comments
print report bad tab
5 comments total. Showing first comments.
0 reply
stef123 10 Jul 16, 2007 07:27 AM

good tab but the hendrix chord is E7#9 not Em7#9!

+3 reply
(sic)kid 10 Sep 11, 2009 08:14 AM

Montreaux is not Montreal. Montreaux is a city in Switzerland.

0 reply
udlevi 10 Apr 02, 2015 03:50 AM, edited at 07:51 am

i think in the first part he plays like this only for the first time
E:|-0---0---0---0-7-5-------------------------------
B:|-0---0---0---0-7-5-------------------------------
G:|-0---0---0---0-7-5-------------------------------
D:|---7---5---7---------------------------------------
A:|-----------------------------------------------------
E:|-------------------------------------------------

and then he repeats it like this

E:|-----0---0---0-7-5-------------------------------
B:|-----0---0---0-7-5-------------------------------
G:|-----0---0---0-7-5-------------------------------
D:|-------5---7---------------------------------------
A:|-----------------------------------------------------
E:|-----------------------------------------------------

guest
You may want to rate the tab now too:
select rating
Wanna post a correction for this tab? Suggest correction