Oops, an error
Loading. Please wait.

Cold Shot Tab

version 1
version 1

Solo

Whole song

Interactive

16,585 views 27 this week
1 commentread comment
1 2 3 4 5
accurate
x 4
add to favorites
launch autoscroll
font size
0
reset
how to read this tab
guitar tuner
Autoscroll
slow
fast
+/-
esc
set tempo
stop
Help us to improve Ultimate-Guitar.com Take our survey!
×
Author
Difficulty
intermediate
I checked the tabs for coldshot and nobody put in the solo so i've always thought that 
i tabbed it myself. A friend tought me this.


|------5----5-5-5-5--------5--5---5-----------------7-5---------------------|
|------5----5-5-5-5--------5--5---5-------------7b--7-5--7-5---------5------|
|------7/8--7-5-7-5--------5--7b--5-------------7b--7-5--7-5---------5------|
|--0-----------------7-5-7------------7-5--------------------7---7-----7p5--|
|--0------------------------------------------------------------------------|
|--------------------------------------------------------------0---0--------|

|-----------------7--7-7--5-7---5-----5------5----5--5-5-----|
|-----------------7--7-7--5-7---5-----5------5----5--5-5-----|
|-----------------7b-7-7--5-7---5-----5------5/7--7--7-5-----|
|---5-5-h-7------------------------7---------------------7---|
|----------------------------------0-------------------------|
|-0---------------------------0------------------------------|

|--------5--------5---5---8b---5---5-------------------------10----10--10---|
|--------5--8b------5------------5---------------------------10----10--10---|
|----5-7------------------------------8\7-5------------------12/13-12--10---|
|--7----------------------------------------7------5----7-7-----------------|
|------------------------------------------------x---5----------------------|
|----------------------------------------------x----------------------------|

|---------------------------7--5-------------------------------------5------|
|---------------------------7--5-----------------------------------5----8-5-|
|---------------------------7--5---------------5-5h7--7-5-----5-7b----------|
|-12-10---7-----5-(5)--7----------7---5----7-7-------------7----------------|
|---------0-----------------------------------------------------------------|
|------------0-------0---0----------0---0-----------------------------------|


|-----------------------------------------7--7--7---7----------------|
|------------------5----------------8-----8--8--8---8--0-------------|
|-7b--7p5-----5-7-----5--5--7-5-----7-----7--7--7---7--0-------------|
|----------7-----------------------(6)----6--6--6---6--0-------------|
|--------------------------------------------------------------------|
|---------------------------------0----0------0---0------------------|


|---------------------7--5----5------------0--7--5-------------------|
|-----0-----0-----0---7--5----5------0-----0--7--5-------------------|
|-----0-----0-----0---7--5----5------0-----0--7--5-------------------|
|--7--0--5--0--7--0---------------5--0--7----------------------------|
|--0-----------------------------------------------------------------|
|--------------------------------------------------------------------|

|-----5-5-----5--8-8-5----5---------------------------------------------5--|
|-----5-5-8b-----------8b---------------------------------------------5----|
|--7b-------------------------8p7p5-----5-7-7b----5--------5--------7b-----|
|------------------------------------7---------------7-------7p5-5---------|
|--------------------------------------------------------------------------|
|--------------------------------------------------------------------------|


sorry, but thats all i got for now. I'll update it when i got more time
Suggest correction
comments
print report bad tab
1 comment total.
+1 reply
biohazardist 71 wrote on July 22 2008, 05:55 pm

Nicely done. Please post the rest. :)

guest
You may want to rate the tab now too:
select rating
Please do not post tabs as comments. Select "correction" instead!