Oops, an error
Loading. Please wait.

Crossfire Bass Tab

version 1
version 1

Whole song

Interactive

20,281 views 1 this week
6 commentsread comments
1 2 3 4 5
x 4
add to favorites
launch autoscroll
font size
0
reset
guitar tuner
Autoscroll
slow
fast
+/-
esc
set tempo
stop
Help us to improve Ultimate-Guitar.com Take our survey!
×
Crossfire - Stevie Ray Vaughn

sounds like the tone knob is turned all the way up on this one.

  main riff:
G|-------------------------------|
D|----------------------------2--|
A|------2-4-4--2-4-4--2-4-2-4----|
E|0-0-4--------------------------|

at about the middle of the song, the chorus is played as this twice: 
G|-----------------|
D|----4-4-----6-6--|
A|-----------------|
E|2-2-----4-4------|

after the first chorus like that, this main riff variation is played 
(those are 11's and 13's):
G|------------11-13---------------------|
D|---------------------11----11---------|
A|------2-4-4-------13----13----13-9-11-|
E|0-0-4---------------------------------|

tabbed by Achilles (blue_sincere@hotmail.com)
Suggest correction
comments
print report bad tab
6 comments total. Showing first comments.
-1 reply
flaming youth 10 May 24, 2003 12:00 AM

tune down 1/2 step 1=gb 2=db 3=ab 4=eb

g|------------------| |
d|------------------|.|
a|-------5-5---5-5-5|'|
e|0-0-4-7-----7---7-| |

-1 reply
horazonblade 112 Apr 05, 2004 12:00 AM

I dont know, sounds pretty perfect to me, 5 stars

+1 reply
swinghead 42 Jan 29, 2006 12:28 PM


think this is the right main riff
G|-------------------------------|
D|----------------------------2--|
A|------2-5-5--2-5-5--2-5-2-5----|
E|0-0-4--------------------------|

guest
You may want to rate the tab now too:
select rating
Wanna post a correction for this tab? Suggest correction