Oops, an error
Loading. Please wait.

Crossfire Tab

version 1
version 1

Whole song

Interactive

81,884 views 117 this week
7 commentsread comments
1 2 3 4 5
x 10
add to favorites
launch autoscroll
font size
0
reset
how to read this tab
guitar tuner
Autoscroll
slow
fast
+/-
esc
set tempo
stop
Help us to improve Ultimate-Guitar.com Take our survey!
×
Author
Tuning
D# G# C# F# A# D#
CROSSFIRE
As recorded by Stevie Ray Vaughan and Double Trouble
(From the 1989 Album IN STEP)

Words & Music by T. Shannon, C. Layton, R. Wynans, B. Carter, R. Ellsworth

Gtr I (Eb Ab Db Gb Bb Eb) - 'Stevie Ray Vaughan dist electric'

  [Intro]
    Q=116
   4/4
    Gtr I
    Wx3          H    Q   Q     W
D#|------------|---------15\--|------|
A#|------------|--------------|------|
F#|------------|--------------|------|
C#|------------|--------------|------|
G#|------------|--------------|------|
D#|------------|--------------|------|


                             ~~~~~~~~~
    H    E  a      +E   +E   E    +Q    Q   H
D#|----------------------------|-----------------|
A#|----------------------------|-----------------|
F#|--------14b16==(16)r(14)p12-|-(12)------------|
C#|----------------------------|-------14\-------|
G#|----------------------------|-----------------|
D#|----------------------------|-----------------|


                   ~~~~~~~~~~~~
    H    E  a      Q.      +Q   Q  H
D#|---------------12----|-(12)----------|
A#|--------15b17-(17)---|-(17)----------|
F#|---------------------|---------------|
C#|---------------------|---------------|
G#|---------------------|---------------|
D#|---------------------|---------------|


                                                       ~~~
    H    E  a      +E   +E   E    +Q         Q   Q  E  E
D#|--------17b19==(19)r(17)-15-|-(15)b15.5---------------|
A#|----------------------------|------------17\-------12-|
F#|----------------------------|----------------------12-|
C#|----------------------------|-------------------------|
G#|----------------------------|-------------------------|
D#|----------------------------|-------------------------|


   ~~~~~~
     +Q    S  S  E E   E  E  E
D#|----------------------------||
A#|-(12)-----------------------||
F#|-(12)-----------------------||
C#|-------14p12----------12-14-||
G#|-------------14---/14-------||
D#|----------------------------||


  [Verse 1]
    Q  Q  H      H    E  a      +E   +S.  T  S  S   W
D#|------------|----------------------------------|------|
A#|------------|----------------------------------|------|
F#|------------|--------14b16==(16)r(14)p12-------|------|
C#|-x----------|----------------------------14p12-|------|
G#|------------|----------------------------------|------|
D#|------------|----------------------------------|------|


                                                             ~~
    H    E  a      +E   +S   S  S  S   W          H    Q  E  E
D#|----------------------------------|----------|--------------|
A#|----------------------------------|----------|-----------12-|
F#|--------14b16==(16)r(14)p12-------|----------|-----------12-|
C#|----------------------------14p12-|----------|--------------|
G#|----------------------------------|----------|--------------|
D#|----------------------------------|----------|--------------|


      ~~~~
     +Q   Q  H      H    E  S  S  E  E    S  S E Q  H
D#|---------------|--------------------|-----------------|
A#|-(12)----------|--------------12-12-|-----------------|
F#|-(12)----------|--------------12-12-|-----------------|
C#|---------------|--------12h14-------|-14p12-----------|
G#|---------------|--------------------|-----------------|
D#|---------------|--------------------|-----------------|


    H    E  a      +E   +E   E   W          W
D#|----------------------------|----------|------||
A#|----------------------------|----------|------||
F#|--------14b16==(16)r(14)p12-|----------|------||
C#|----------------------------|----------|------||
G#|----------------------------|----------|------||
D#|----------------------------|----------|------||


  [Chorus 1]
               ~~~~~~~~~                             ~~~
    H    Q  E  E    +Q   Q  H      Q   E     +E   E  Q.
D#|--------------|---------------|---------------12-------|
A#|-----------12-|-(12)----------|------------------------|
F#|-----------12-|-(12)----------|----14b16-(16)----12----|
C#|--------------|---------------|------------------------|
G#|--------------|---------------|------------------------|
D#|--------------|---------------|------------------------|


                   ~~~~~~~
     E     +E   E  E  +E   S  S  S  S  E   H    Q  E  E    +Q    Q  H
D#|------------12------------------------|-----------12-|-(12)\----------|
A#|---------------12-(12)----------------|-----------12-|-(12)\----------|
F#|-14b16-(16)----12-(12)----------------|-----------12-|-(12)\----------|
C#|-----------------------14p12-------12-|--------------|----------------|
G#|-----------------------------13s14----|--------------|----------------|
D#|--------------------------------------|--------------|----------------|


    Q   E     +E   E  E  E     +E
D#|---------------12---------------|
A#|------------------12-15b17-(17)-|
F#|----14b16-(16)------------------|
C#|--------------------------------|
G#|--------------------------------|
D#|--------------------------------|


                            ~~~~~~~
     E  E  a      +S   +S   E  +E   S  S  S  S  E
D#|-12--------------------------------------------||
A#|----15-15b17--(17)-----------------------------||
F#|-------14b16==(16)r(14)-12-(12)----------------||
C#|--------------------------------14p12-------12-||
G#|--------------------------------------13s14----||
D#|-----------------------------------------------||


  [Verse 2]
                                           ~~~~~~~~~
     q  Q  H      H    E  a      +E   +E   E    +Q   Q  H
D#|-------------|----------------------------|---------------|
A#|-------------|--------14b15==(15)r(14)p12-|-(12)----------|
F#|-------------|--------14b15==(15)r(14)p12-|-(12)----------|
C#|-------------|----------------------------|---------------|
G#|-------------|----------------------------|---------------|
D#|-12----------|----------------------------|---------------|


                             ~~~~~~~~~                               ~~
    H    E  a      +E   +E   E    +Q   Q  Q   Q     H    E  S  S  E  E   Wx2
D#|----------------------------|-------------12\--|--------------------|--------||
A#|----------------------------|-------------12\--|-----------------12-|--------||
F#|--------14b16==(16)r(14)-12-|-(12)--------12\--|-----------------12-|--------||
C#|----------------------------|------------------|--------------12----|--------||
G#|----------------------------|------------------|--------12h14-------|--------||
D#|----------------------------|------------------|--------------------|--------||


  [Chorus 2]
               ~~~~~~~~~
    H    Q  E  E    +Q   Q  H      Q   E     +E   E  E  a     +E   E
D#|--------------|---------------|---------------12---------------12-|
A#|-----------12-|-(12)----------|------------------12-15b17-(17)----|
F#|-----------12-|-(12)----------|----14b16-(16)---------------------|
C#|--------------|---------------|-----------------------------------|
G#|--------------|---------------|-----------------------------------|
D#|--------------|---------------|-----------------------------------|


                         ~~~~~~~
     E  a       E   +E   E  +E   S  S  S  S  E    H.      E  E    +Q    Q  H
D#|--------------------------------------------|---------------|----------------|
A#|-15---------15------------------------------|------------12-|-(12)\----------|
F#|----14b16==(16)r(14)-12-(12)----12----------|------------12-|-(12)\----------|
C#|-----------------------------14-12-------12-|-14------------|----------------|
G#|-----------------------------------12h14----|---------------|----------------|
D#|--------------------------------------------|---------------|----------------|


                                              ~~~~~~~
    Q   E     +E   E  E  E E    E     +E   E  E  +E   S  S  S  S  S  S
D#|---------------12---------|------------12---------------------------||
A#|--------------------------|-----------------------------------------||
F#|----14b16-(16)----12------|-14b16-(16)----12-(12)-------------------||
C#|---------------------14---|-----------------------14p12-------------||
G#|--------------------------|-----------------------------13s14-13s14-||
D#|--------------------------|-----------------------------------------||


  [Bridge]
     E E +H.          E  E  +H.         E E +H.
D#|---------------|------------------|-------------|
A#|----8-(8)------|-----10-(10)------|----8-(8)----|
F#|---------------|------------------|-------------|
C#|-/9------------|-/11--------------|-/9----------|
G#|---------------|------------------|-------------|
D#|---------------|------------------|-------------|


                               ~~~~~~~~~
    H    E  E  Q    H    Q  E  E    +Q   Q  H      Q   E     +E   E  E  E  E
D#|--------19\----|--------------|---------------|---------------12-----------|
A#|---------------|-----------12-|-(12)----------|------------------12-15-17--|
F#|---------------|-----------12-|-(12)----------|----14b16-(16)--------------|
C#|---------------|--------------|---------------|----------------------------|
G#|---------------|--------------|---------------|----------------------------|
D#|---------------|--------------|---------------|----------------------------|


 Guitar Solo
      ~~~~~~~~~                                                     ~~~~~~~~~
                |3-|      |----3-----|
   S  E.  E  E  Q  E     +E   E     +E     E     +E   E     +E   S  E.  E  E
|-15-----------15-17b19-(17)-17b19-(17)-|-17b19-(17)-17b19-(17)-15-----------|
|----17--17-17--------------------------|--------------------------17--17-17-|
|---------------------------------------|------------------------------------|
|---------------------------------------|------------------------------------|
|---------------------------------------|------------------------------------|
|---------------------------------------|------------------------------------|


     E  E  a     +E   E       +E     S  S  S  a     +E.
D#|-15-17-17b19-(17)-15b15.5-(15.5)-------15-17b19-(19)-|
A#|---------------------------------17-17---------------|
F#|-----------------------------------------------------|
C#|-----------------------------------------------------|
G#|-----------------------------------------------------|
D#|-----------------------------------------------------|


                                                     ~~~
     S      +E.  +E   S      +S   +S   +S   S  S  S  E.
D#|-17b19==(17)r(17)-15b17==(17)-(17)r(15)-------15-----|
A#|----------------------------------------17-17----17--|
F#|-----------------------------------------------------|
C#|-----------------------------------------------------|
G#|-----------------------------------------------------|
D#|-----------------------------------------------------|


     S  S  S  S     +S   S  S  S  E  S     +S   S  S  S  S
D#|-----------------------------------------------12----------|
A#|-17p15--------------------------------------12----12-15b17-|
F#|-------16-14b16-(16)-14p12----12-14b16-(16)----------------|
C#|---------------------------14------------------------------|
G#|-----------------------------------------------------------|
D#|-----------------------------------------------------------|


     +S.  T  S  S     +S   S  S  S  S     +S   S  S  S     +S   S  S
D#|------12------------------12---------------12---------------12----|
A#|-(17)----15------------12----12-15b17-(17)----12-15b17-(17)----12-|
F#|------------14b16-(16)--------------------------------------------|
C#|------------------------------------------------------------------|
G#|------------------------------------------------------------------|
D#|------------------------------------------------------------------|


     a     +S   S  S  S     +S   S  S  S  a     +Q.    a     +E
D#|------------12------------------12----15b17-(17)---15b17-(17)-|
A#|-15b17-(17)----15------------12----12-------------------------|
F#|------------------14b16-(16)----------------------------------|
C#|--------------------------------------------------------------|
G#|--------------------------------------------------------------|
D#|--------------------------------------------------------------|


     +E   E        +E    S  S  S  S  E  +E   S  S
D#|-(17)-15b15.5-(15.5)-12----12-15-12-(12)-------|
A#|------------------------12---------------15-12-|
F#|-----------------------------------------------|
C#|-----------------------------------------------|
G#|-----------------------------------------------|
D#|-----------------------------------------------|


                                ~~~~~~~
                  |---3---|
   S      +S   E  S  +S   S  S  S  +E   S  S  S  S  E
|-------------12--------------------------------------|
|-------------12--------------------------------------|
|-14b16==(16)----16r(14)-12----12-(12)----------------|
|---------------------------14---------14p12-------12-|
|--------------------------------------------12h14----|
|-----------------------------------------------------|


                            ~~~~~~~~~
    Q   S     +E.  E  E  E  E    +Q    E  E  +E   Q  E
D#|----17b19-(19)-17-15----15-|-(15)--17---------------|
A#|---------------------17----|----------17-(17)\------|
F#|---------------------------|------------------------|
C#|---------------------------|------------------------|
G#|---------------------------|------------------------|
D#|-0-------------------------|-------------------0--0-|


                                     |----------3----------|
  +E   a     +Q    a     +E   a     +Q   a     +Q   a     +Q
|-----17b19-(19)--17b19-(19)-17b19-(19)-17b19-(19)-17b19-(19)-|
|-------------------------------------------------------------|
|-------------------------------------------------------------|
|-------------------------------------------------------------|
|-------------------------------------------------------------|
|-(0)---------------------------------------------------------|


                    ~~~
     a     +Q    S  E.  E  E  E  E    E      +E   +E   E     +E   E     +E   E
D#|-17b19-(19)--15-----------15-17-|-17b19==(19)r(17)-15b17-(17)-17b19-(19)-15b17-|
A#|----------------17--17-17-------|----------------------------------------------|
F#|--------------------------------|----------------------------------------------|
C#|--------------------------------|----------------------------------------------|
G#|--------------------------------|----------------------------------------------|
D#|--------------------------------|----------------------------------------------|


                                         ~~~
     +E   E     +E   E     +E   S  S  S  E.
D#|-(17)-17b19-(19)-15b17-(17)-------15-----|
A#|----------------------------17-17----17--|
F#|-----------------------------------------|
C#|-----------------------------------------|
G#|-----------------------------------------|
D#|-----------------------------------------|


     S  S  S  a     +S   +S   S  S  S  E  S     +S   S  S  S  S
D#|----------------------------------------------------12----------|
A#|-17p15-------------------------------------------12----12-15b17-|
F#|-------16-14b16-(16)-(16)-14p12----12-14b16-(16)----------------|
C#|--------------------------------14------------------------------|
G#|----------------------------------------------------------------|
D#|----------------------------------------------------------------|


     +S   S  S  a       S   +S   S  S  S S  S     +S   S  S  S  S  S
D#|------12----------------------------------------------------------|
A#|-(17)----15---------15--------------------------------------------|
F#|------------14b16==(16)r(14)p12---------14b16-(16)-12-14-12----12-|
C#|--------------------------------14-12-----------------------14----|
G#|------------------------------------------------------------------|
D#|--------------------------------------0---------------------------|


     E     +E   E  E  E     +E   E  E
D#|------------12---------------12----|
A#|---------------12-15b17-(17)----12-|
F#|-14b16-(16)------------------------|
C#|-----------------------------------|
G#|-----------------------------------|
D#|-----------------------------------|


              ~~~                                        ~~~
     E  E  S  E.  E  E  E  E    E     +E   E     +E   S  E.  E  E
D#|-------15-----------15-17-|-17b19-(19)-15b17-(17)-15-----------|
A#|-15-17----17--17-17-------|--------------------------17--17-17-|
F#|--------------------------|------------------------------------|
C#|--------------------------|------------------------------------|
G#|--------------------------|------------------------------------|
D#|--------------------------|------------------------------------|


                        |-3-|      |----3-----|
   E  E     +E   E     +Q   E     +E   E     +E
|-15-17b19-(19)-17b19-(19)-17b19-(19)-17b19-(19)-|
|------------------------------------------------|
|------------------------------------------------|
|------------------------------------------------|
|------------------------------------------------|
|------------------------------------------------|


                                                          ~~
     a     +E   Q  E +H       +E   E  E     +E   S  S  E  Q
D#|-17b19-(19)-19-----------|-----12-------------------------|
A#|-------------------------|-----12-------------------------|
F#|-------------------------|--------14b16-(16)-14p12----12--|
C#|-------------------------|-------------------------14-----|
G#|-------------------------|--------------------------------|
D#|----------------0-(0)----|-(0)----------------------------|


     S  S  S  S  E  E  E  a     +E   E  E
D#|---------------------------------------|
A#|----------------------14b15-(15)-12----|
F#|-------------------12-14b15-(15)-12-14-|
C#|-14p12-------12-14---------------------|
G#|-------12s14---------------------------|
D#|---------------------------------------|


     E  S  S  +S   S  S  S  S  E.  E  S  S
D#|----------------------------------------||
A#|----12----------------------------------||
F#|----12----------------------------------||
C#|-14----12-(12)-14-------12--------12h14-||
G#|------------------12h14----12-----------||
D#|-------------------------------15-------||


  [Verse 3]
    H    H      H    E  S      +S   +S   +S   E
D#|-----------|---------------------------------|
A#|-----------|--------14b15==(15)-(15)r(14)----|
F#|-----------|--------14b15==(15)-(15)r(14)p12-|
C#|-----------|---------------------------------|
G#|-----------|---------------------------------|
D#|-0---------|---------------------------------|


     +Q   Q  H      H    E  S      +S   +S   +S   E   W
D#|---------------|---------------------------------|------|
A#|---------------|--------14b15==(15)-(15)r(14)p12-|------|
F#|-(12)----------|--------14b15==(15)-(15)r(14)p12-|------|
C#|---------------|---------------------------------|------|
G#|---------------|---------------------------------|------|
D#|---------------|---------------------------------|------|


    H    E  S      +S   +S   +S   E   W          W
D#|---------------------------------|----------|------|
A#|--------15-----(15)-(15)-(15)----|----------|------|
F#|--------14b16==(16)-(16)r(14)p12-|----------|------|
C#|---------------------------------|----------|------|
G#|---------------------------------|----------|------|
D#|---------------------------------|----------|------|


               ~~~~~~~~~
    H    Q  E  E    +Q   Q  H      Q   E     +E   E  e Q
D#|--------------|---------------|---------------12-------|
A#|-----------12-|-(12)----------|------------------------|
F#|-----------12-|-(12)----------|----14b16-(16)----12----|
C#|--------------|---------------|------------------------|
G#|--------------|---------------|------------------------|
D#|--------------|---------------|------------------------|


                   ~~~~~~~
     E     +E   E  E  +E   S  S  S  S  E   W          W
D#|------------12------------------------|----------|------|
A#|--------------------------------------|----------|------|
F#|-14b16-(16)----12-(12)----------------|----------|------|
C#|-----------------------14-12-------12-|----------|------|
G#|-----------------------------12h14----|----------|------|
D#|--------------------------------------|----------|------|


    Q   E     +E   E  E E S S
D#|---------------12----------|
A#|---------------------------|
F#|----14b16-(16)----12---x-x-|
C#|-----------------------x-x-|
G#|---------------------------|
D#|---------------------------|


                   ~~~~~~~                  ~~
     E     +E   E  E  +E   S  S  S  S  E    H    Q  E  E
D#|------------12------------------------|------------12-|
A#|--------------------------------------|------------12-|
F#|-14b16-(16)----12-(12)----------------|------------12-|
C#|-----------------------14-12-------12-|-14------------|
G#|-----------------------------12h14----|---------------|
D#|--------------------------------------|---------------|


     +Q    Q  H      Q   E     +E   E  E  E     +E
D#|-(12)\----------|---------------12---------------|
A#|-(12)\----------|------------------12-15b17-(17)-|
F#|-(12)\----------|----14b16-(16)------------------|
C#|----------------|--------------------------------|
G#|----------------|--------------------------------|
D#|----------------|--------------------------------|


     E  E  S     +S   S  S     +S   S  S     +S   S  S  S  S
D#|-12---------------12------------12------------------------|
A#|----12-15b17-(17)-----------------------------------------|
F#|---------------------14b16-(16)----14b16-(16)-14p12-------|
C#|----------------------------------------------------14p12-|
G#|----------------------------------------------------------|
D#|----------------------------------------------------------|


     ~~
     H    Q  E  E    +Q    Q  H      Q   E     +E   E  E  E  E
D#|------------12-|-(12)\----------|---------------12----------||
A#|------------12-|-(12)\----------|------------------12-15-17-||
F#|------------12-|-(12)\----------|----14b16-(16)----12-------||
C#|-14------------|----------------|---------------------------||
G#|---------------|----------------|---------------------------||
D#|---------------|----------------|---------------------------||


 Guitar Solo
      ~~~~~~
              |3-|      |-3-|    |--3--|  |--3--|    |--3--|  |--3--|
   S  E.  Q   Q  E     +E   Q    Q  Q  Q  Q  Q  Q    Q  Q  Q  Q  Q  Q
|-15---------15-17b19-(19)-17-|-19-19-19-19-19-19-|-19-19-19-19-18-18-|
|----17--17-------------------|-------------------|-------------------|
|-----------------------------|-------------------|-------------------|
|-----------------------------|-------------------|-------------------|
|-----------------------------|-------------------|-------------------|
|-----------------------------|-------------------|-------------------|


   |--3--|  |--3--|                         |-3-|      |----3-----|
   Q  Q  Q  Q  Q  Q    E  E     +E   E     +Q   E     +E   E     +E
|-18-17-17-18-18-17-|-15-17b19-(19)-17b19-(19)-17b19-(19)-17b19-(19)-|
|-------------------|------------------------------------------------|
|-------------------|------------------------------------------------|
|-------------------|------------------------------------------------|
|-------------------|------------------------------------------------|
|-------------------|------------------------------------------------|


     S      S  +S   S  S      +E.  +E      S  S  +Q
D#|-17b19==17r(17)----17b20==(20)-(20)r\-/15-15-(15)--|
A#|----------------12---------------------------------|
F#|---------------------------------------------------|
C#|---------------------------------------------------|
G#|---------------------------------------------------|
D#|---------------------------------------------------|


     ~~
     Q   S  S  S  S     +S   S  S  S  S     +S   S  S
D#|-15--12---------------------12---------------12----|
A#|--------15-12------------12----12-15b17-(17)----12-|
F#|--------------14b16-(16)---------------------------|
C#|---------------------------------------------------|
G#|---------------------------------------------------|
D#|---------------------------------------------------|


     S  S  a     +S   S  E  S  S  S  S      +S   S  S  S  S  S
D#|------------------------------------------------------------|
A#|-15-12------------12----------------------------------------|
F#|-------14b15-(15)----12-------14-14pb15r(14)-12-14p12-------|
C#|------------------------14-12-------------------------14p12-|
G#|------------------------------------------------------------|
D#|------------------------------------------------------------|


               |--3--|
   S  S  S  S  S  S  S  S  S  S  S  S  S  E  E
|----------------------------------------------|
|----------------------------------------------|
|----------------------------------------------|
|-14-12----------------------------------------|
|-------14-13-12h13p12-------12-13-12----12----|
|----------------------15-15----------15----15-|


  [Outro]
       S  S  S  S  S  S  S  S  e  e S  S  S  S
D#||--------------15-15-------15-15------------|
A#||o-------------15-15-------15-15------------|
F#||-------------------------------------------|
C#||--14-14-14-14-------14-14-------x-14-14-14-|
G#||o-------------------------------x----------|
D#||--12-12-12-12-------12-12-------x-12-12-12-|


     S  S  S  S  e  e S  S  S     +S   S  S  S  S   3x
D#|-15-15-------15-15---15--------------------------||
A#|-15-15-------15-15---15-15----------------------o||
F#|------------------------14b16-(14)-14-12---------||
C#|-------14-14-------x---------------------14-12---||
G#|-------------------x----------------------------o||
D#|-------12-12-------x-----------------------------||


     S  S  S  S  S  S  S  S  e  e E. S    S      +S   E E  E  +Q    Q
D#|-------------15-15-------15-15------|------------------12-(12)\-----*|
A#|-------------15-15-------15-15------|------------------12-(12)\-----*|
F#|----------------------------------x-|-14pb16r(14)p12---12-(12)\-----*|
C#|-14-14-14-14-------14-14------------|-------------------------------*|
G#|------------------------------------|-------------------------------*|
D#|-12-12-12-12-------12-12------------|-------------------------------*|



************************************

| \    Slide down
| (n)  Ghost note
| b    Bend
| p    Pull-off
| /    Slide up
| x    Dead note
| h    Hammer-on
| s    Slap
| pb   Pre-bend  

************************************
Suggest correction
comments
print report bad tab
7 comments total. Showing first comments.
0 reply
Who66 1,142 Dec 16, 2007 02:22 PM

another one taken from Mikesguitarsite, but good

0 reply
guitarman77665 49 Jul 11, 2008 10:14 AM

That was great

Thx

0 reply
frantic_saint 10 Jan 27, 2009 11:02 AM

i pooed a little...... jk nice tab

guest
You may want to rate the tab now too:
select rating
Wanna post a correction for this tab? Suggest correction