Oops, an error
Loading. Please wait.

Im Crying Tab

8,076 views 13 this week
5 commentsread comments
1 2 3 4 5
accurate
x 4
add to favorites
launch autoscroll
font size
0
reset
how to read this tab
guitar tuner
Tab Pro tools
  • play this tab
  • loop segment
  • change instrument
  • show fretboard
  • metronome
×
Best way to learn
"Im Crying"
Autoscroll
slow
fast
+/-
esc
set tempo
stop
Contributor
--------------------------------------------------------------

      STEVIE RAY VAUGHAN - I'M CRYIN'. From TEXAS FLOOD album.
                           Released 1983.

--------------------------------------------------------------

      Tabbed by:PJVillanueva







Well now sittin' here so lonely 
feelin' oh so blue
My baby's tryin' to mistreat me 
and I don't know what to do
So I'm cryin'
Why do I have to feel this way?
If I can't love my baby 
I can't live another day

Yeah I've loved her such a long time
to end it all this way
Sittin' here so lonely
Tears be fallin' just like rain
So I'm cryin'
Why do I have to feel this way
If I can't love my baby
I can't live another day

Yeah you know I love you baby
I'll do anything for you
But when we start to fightin'
I just get these same old blues
So I'm cryin'
Why do I have to feel this way
If I can't love my baby
I can't live another day

Yeah now when I first met you, baby
at a dance 'n' we did fine
Now we're together it's a total waste of time
So I'm cryin'
Why do I have to feel this way
If I can't love you baby
I can't live another day

Well I guess it's just my own fault
The truth I cannot hide
But if I get you back dear
I'll stay right by your side
I won't be cryin'
I'll stay happy that a way
I'll be lovin' my little baby
Every night and every day






 Tune your guitar a half step down If you want to match the recording.




   12/8



e|-------- -------- -------- --------|-------- ------0- ------0- 3B4---0-|
B|-----------------------------------|---------------0--3B4------------0-|
G|-----------------------------------|---------------0-----------------0-|
D|-----------------------------------|-----------------------------------|
A|-----------------------------------|-----------------------------------|
E|-----------------------------------|-----------------------------------|





e|------0- ------0- ------0- ------0-|------0- 3B4---0- ------0- ------0-|
B|------0--------0--------0--------0-|------0-----------3B4---0--------0-|
G|------0--------0--------0--------0-|------0--------------------2B4-----|
D|------0--------0--------0--------0-|2-----0----------------------------|
A|------------------2--------4-------|-----------------------------------|
E|0--------3-------------------------|-----------------------------------|




  
e|------0- -------- ------0- 2-------|0-----0- ------0- ------0- ------0-|
B|-HPH--0-----------------0--2-------|0-----0--------0--------0--3B4-----|
G|0101--0-----------------0--2-------|0-----0--------0--------0----------|
D|------0-----------------0--2-------|0-----0--------0--------0----------|
A|------------------2----------------|------------------2----------------|
E|---------3-------------------------|---------3-------------------------|





e|3B4---0- -------- -------- --------|-------- 3B4---0- ------0- --------|
B|------0----------------------------|------------------3B4----------R-P-|
G|-----------------------------------|---------------------------2B4--20-|
D|------------------2-----2--4-----2-|2---------------------------------2|
A|---------3-----4--0-----0--0-----0-|0----------------------------------|
E|-----------------------------------|-----------------------------------|





e|-------- -------- ------0- ------0-|------0- -------- ------0- ------0-|
B|------------------------0--------0-|-HPH--0-----------------0--3B4-----|
G|0H1------------------------2B4-----|0101--------------------0----------|
D|-----------------------------------|------------------2-----0----------|
A|------2--4-----4--2----------------|------------------2----------------|
E|------0--0-----0--0----------------|---------3-----4-------------------|



    
              Rake up
e|3P0----- -----0-- -------- --------|-------- -------- -------- --------|
B|------3--------3-------------------|-----------------------------------|
G|---------2B-----4-2-P0-------------|-----------------------------------|
D|------------------------2----------|0--1--2-----0------H-P-----------2-|
A|---------------------------0H2---2-|---------------2--0-1-0----0-------|
E|-----------------------------------|------------------------3-----3----|





e|------0- -------- -------- --------|-------- -------- ------0- ------0-|
B|------0-/3--3--3--3--3--3----------|------------------------0--------0-|
G|--------/4--4--4--4--4--4--2-P0----|------------------------0--------0-|
D|---------------------------------2-|------------------------0--------0-|
A|-----------------------------------|---------0--1--2-------------------|
E|0----------------------------------|0-----3----------------------------|
                                                              Well     now


  00:27

e|------0- ------0- ------0- ------0-|------0- ------0- ------0- ------0-|
B|------0--------0--------0--------0-|------0--------0--------0--------0-|
G|------0--------0--------0--------0-|------0--------0--------0--------0-|
D|------0--------0--------0--------0-|------0--------0--------0--------0-|
A|-----------------------------------|-----------------------------------|
E|-----------------------------------|-----------------------------------|
  sittin'     so    lonely            Feelin'     so    blue           My
        here                                oh



e|------0- ------0- ------0- ------0-|------0- ------0- ------0- ------0-|
B|------0--------0--------0--------0-|------0--------0--------0--------0-|
G|------0--------0--------0--------0-|------0--------0--------0--------0-|
D|------0--------0--------0--------0-|------0--------0--------0--------0-|
A|-----------------------------------|-----------------------------------|
E|-----------------------------------|-----------------------------------|
  baby's   tryin'         me I     don't    know     to do       so  cryin'
              to mistreat  and                 what                I'm



e|-------- 3-----3- -------- 3-----3-|------0- ------0- ------0- ------0-|
B|---------2-----2-----------2-----2-|------0--------0--------0--------0-|
G|------2--2-----2--------2--2-----2-|------0--------0--------0--------0-|
D|------2--2-----2--------2--2-----2-|------0--------0--------0--------0-|
A|-----------------------------------|-----------------------------------|
E|-----------------------------------|-----------------------------------|
                                            Why do I have     to feel this 



                         RU
e|------0- ------0- 0----0-- --------|------0- ------0- ------0- ------0-|
B|------0--------3--3-----3----------|---------3B4---0---HPHP-0--------0-|
G|------0-/4---------------4-2-P0----|------------------01010-0--------0-|
D|------0--------------------------2-|------------------------0--------0-|
A|-----------------------------------|-----------------------------------|
E|-----------------------------------|-----------------------------------|
  way?                                                              If I




e|------0- ------0- ------0- 2-----0-|0-----0- ------0- ------0- ------0-|
B|------0--------0--------0--0-----0-|2-----0--------0--------0--------0-|
G|------0--------0--------0--0-----0-|0-----0--------0--------0--------0-|
D|------0--------0--------0----------|2-----0--------0--------0--------0-|
A|-----------------------------------|-----------------------------------|
E|-----------------------------------|-----------------------------------|
  can't    love  my baby                    I     can't live  another  day




e|------0- -------- 0----0-- --------|-------- -------- ------0- ------0-|
B|------0--------3--3-----3----------|------------------------0--------0-|
G|------0-/4---------------4-2-P0----|------------------------0--------0-|
D|------0--------------------------2-|------------------------0--------0-|
A|-----------------------------------|---------0--1--2-~-----------------|
E|-----------------------------------|0-----3----------------------------|
                                                               Yeah  
                                                                 I've



e|------0- ------0- ------0- ------0-|------0- ------0- ------0- ------0-|
B|------0--------0--------0--------0-|------0--------0--------0--------0-|
G|------0--------0--------0--------0-|------0--------0--------0--------0-|
D|------0--------0--------0--------0-|------0--------0--------0--------0-|
A|-----------------------------------|-----------------------------------|
E|-----------------------------------|-----------------------------------|
  loved her   a  long     time     to end it all this   way
           such



e|------0- ------0- ------0- ------0-|------0- ------0- ------0- ------0-|
B|------0--------0--------0--------0-|------0--------0--------0--------0-|
G|------0--------0--------0--------0-|------0--------0--------0--------0-|
D|------0--------0--------0--------0-|------0--------0--------0--------0-|
A|-----------------------------------|-----------------------------------|
E|-----------------------------------|-----------------------------------|
  Sittin'     so    lonely   tears be fallin'  just like rain    so I'm
        here                                                         cryin'



e|-------- 3-----3- -------- 3-----3-|------0- ------0- ------0- ------0-|
B|---------2-----2-----------2-----2-|------0--------0--------0--------0-|
G|------2--2-----2--------2--2-----2-|------0--------0--------0--------0-|
D|------2--2-----2--------2--2-----2-|------0--------0--------0--------0-|
A|-----------------------------------|-----------------------------------|
E|-----------------------------------|-----------------------------------|
                                            Why do I have     to feel this 



                         RU
e|------0- -------- 0----0-- --------|------0- ------0- ------0- ------0-|
B|------0--------3--3-----3----------|---------3B4---0---HPHP-0--------0-|
G|------0-/4---------------4-2-P0----|------------------01010-0--------0-|
D|------0--------------------------2-|------------------------0--------0-|
A|-----------------------------------|-----------------------------------|
E|-----------------------------------|-----------------------------------|
  way?                                                              If I




e|------0- ------0- ------0- 2-----0-|0-----0- ------0- ------0- ------0-|
B|------0--------0--------0--0-----0-|2-----0--------0--------0--------0-|
G|------0--------0--------0--0-----0-|0-----0--------0--------0--------0-|
D|------0--------0--------0----------|2-----0--------0--------0--------0-|
A|-----------------------------------|-----------------------------------|
E|-----------------------------------|-----------------------------------|
  can't    love  my baby                    I     can't live  another  day



                         RU
e|------0- -------- 0----0-- --------|-------- -------- ------0- ------0-|
B|------0--------3--3-----3----------|------------------------0--------0-|
G|------0-/4---------------4-2-P0----|------------------------0--------0-|
D|------0--------------------------2-|------------------------0--------0-|
A|-----------------------------------|---------0--1--2-~-----------------|
E|-----------------------------------|0-----3----------------------------|
                                                             Yeah      you


  01:14

e|-------- -------- ------0- ------0-|-------- -------- ------0- --------|
B|------------------------0--------0-|------------------------0----------|
G|------------------------0--------0-|------------------------2B4R2P0----|
D|------------------------0--------0-|---------------------------------2-|
A|-----------------------------------|-----------------------------------|
E|-----------------------------------|-----------------------------------|
  know I   love you,                  do anything for you              but
                 baby              I'll



e|0------- -------- -------- --------|-------- -------- ------0- ------0-|
B|0----------------------------------|------------------------0--------0-|
G|1----------------------------------|------------------------0--------0-|
D|2----------------------------------|------------------------0--------0-|
A|-----------------------------------|-----------------------------------|
E|-----------------------------------|-----------------------------------|
  when  we start             I just get these  same old blues    so I'm
             to fightin'                                             cryin'
              


e|-------- 3-----3- -------- 3-----3-|------0- ------0- ------0- ------0-|
B|---------2-----2-----------2-----2-|------0--------0--------0--------0-|
G|------2--2-----2--------2--2-----2-|------0--------0--------0--------0-|
D|------2--2-----2--------2--2-----2-|------0--------0--------0--------0-|
A|-----------------------------------|-----------------------------------|
E|-----------------------------------|-----------------------------------|
                                            Why do I have     to feel this 



                         RU
e|------0- -------- 0----0-- --------|------0- ------0- ------0- ------0-|
B|------0--------3--3-----3----------|------0--3B4---0---HPHP-0--------0-|
G|------0-/4---------------4-2-P0----|0H1---------------01010-0--------0-|
D|------0--------------------------2-|------------------------0--------0-|
A|-----------------------------------|-----------------------------------|
E|-----------------------------------|-----------------------------------|
  way?                                                              If I




e|------0- ------0- ------0- 2-----0-|0-----0- ------0- ------0- ------0-|
B|------0--------0--------0--0-----0-|2-----0--------0--------0--------0-|
G|------0--------0--------0--0-----0-|0-----0--------0--------0--------0-|
D|------0--------0--------0----------|2-----0--------0--------0--------0-|
A|-----------------------------------|-----------------------------------|
E|-----------------------------------|-----------------------------------|
  can't    love  my baby                    I     can't live  another  day



                         RU
e|------0- -------- 0----0-- --------|------0- 3-----2- ------2- 2-----0-|
B|------0--------3--3-----3----------|------0--3-----2--------2--2-----0-|
G|------0-/4---------------4-2-P0----|0H1---0--3-----2--------2--2-----0-|
D|------0--------------------------2-|2-----0--2-----1--------1--1-----0-|
A|-----------------------------------|---------3-----2--------2--2-------|
E|-----------------------------------|-----------------------------------|



  01:37

e/0--0--0- 0--0--0- 0--0--0- 0--0--0-/0--0--0- 0--0--0- 0--0--0- 0--0--0-|
B/3--3--3--3--3--3--3--3--3--3--3--3-/3--3--3--3--3--3--3--3--3--3--3--3-|
G/4--4--4--4--4--4--4--4--4--4--4--4-/4--4--4--4--4--4--4--4--4--4--4--4-|
D|-----------------------------------|-----------------------------------|
A|-----------------------------------|-----------------------------------|
E|-----------------------------------|-----------------------------------|





e/0--0--0- 0--0--0- 0--0--0- 0--0--0-|-H-P---- -H-P---- -H-P---- --------|
B/3--3--3--3--3--3--3--3--3--3--3--3-|35-3-----35-3-----35-3-------------|
G/4--4--4--4--4--4--4--4--4--4--4--4-|------4--------4--------4--2--0----|
D|-----------------------------------|---------------------------------2-|
A|-----------------------------------|-----------------------------------|
E|-----------------------------------|-----------------------------------|




                         RU
e|-------- ---0---- -----0-- --------|-------- 5-----5- ----5--- ----5---|
B|---8B10--8-----0--------3----------|------5-----5----8B10-5-5-8B10-5-5-|
G|-------------------------4-2--0----|2-/6-------------------------------|
D|------------------2/4------------2-|0----------------------------------|
A|0----------------------------------|-----------------------------------|
E|-----------------------------------|-----------------------------------|





e|-------- ------0- -------- 0-----0-|-------- -------- ------0- ------3-|
B|---------------------3B4---0--3--0-|------------------------0--3--0----|
G4\2-0-----0H1-----------------------|2B4-----4R2-0-----0H1--------------|
D|------2----------------------------|---------------2-------------------|
A|-----------------------------------|-----------------------------------|
E|-----------------------------------|-----------------------------------|



 
                         RU
e0H2P0---- 0------- -----0-- --------|-------- -------- -------- --------|
B|------3--0--3--0--------3----------|-----------------------------------|
G|------------------2B4----4-2--0----|-----------------------------------|
D|---------------------------------2-|---------0--1--2-----0------HP-----|
A|-----------------------------------|0H2---2-----------------2--010-----|
E|-----------------------------------|---------------------------------3-|





e|------0- -------- -------- --------|-------- -------- -------- --12----|
B|------0-/3--3--3--3--3--3----------|------------------------x----12----|
G|--------/4--4--4--4--4--4-4\2P0----|------------------------x----13----|
D|2--------------------------------2-|------------------------x----12----|
A|-----------------------------------|---------0--1--2-~-----------------|
E|-----------------------------------|0-----3----------------------------|



  02:01

e|12-12-12 12-12-12 12-12-12 12-12-12|--12---- 12-12-12 12-12-12 12-12-12|
B|12-12-12-12-12-12-12-12-12-12-12-12|--12-----12-12-12-12-12-12-12-12-12|
G|11-11-11-11-11-11-11-11-11-11-11-11|--12-----12-12-12-12-12-12-12-12-12|
D|12-12-12-12-12-12-12-12-12-12-12-12|--11-----11-11-12-11-11-11-11-11-11|
A|-----------------------------------|--12-----12-12-12-12-12-12-12-12-12|
E|-----------------------------------|-----------------------------------|





e|--12---- 12-12-12/12-12-12 12-12-12|x----7/9 ---7----/4--4--4- 3--2--0-|
B|--12-----12-12-12/12-12-12-12-12-12|x----------------------------------|
G|--11-----11-11-11/11-11-11-11-11-11|x----7/9----7----/4--4--4--3--2--1-|
D|--12-----12-12-12/12-12-12-12-12-12|-----------------------------------|
A|-----------------------------------|-----------------------------------|
E|-----------------------------------|-----------------------------------|





e|------5-/5--5--5- 7--6--5- ----5-5-|------5- 7--6--5- ----5--- --------|
B|---5--5-/5--5--5--5--5--5--8B7-5-5-|---5--5--5--5--5--8B7-5------------|
G/6--6----/6--6--6-------------------/6--6-------------------4\2-0-----2-|
D|-----------------------------------|------------------------------2----|
A|-----------------------------------|-----------------------------------|
E|-----------------------------------|-----------------------------------|





e|------0- -------- 0------- --------|------0- -------- ------0- ----0-0-|
B|------------3B4---------3--------P-|------------3--0--3B4---0--3---0-0-|
G|0H1------------------------2B4R-20-|0H1--------------------------------|
D|2---------------------------------2|2----------------------------------|
A|-----------------------------------|-----------------------------------|
E|-----------------------------------|-----------------------------------|




                                                    RU
e|-------- ---2---- ------2- ---2----|3B4-0--- -----0-- -------- --------|
B|------------------------0-----0----|------3--0-----3-------------------|
G|------2-----------2-----2-----2----|----------------4-2--0-------------|
D|------------------1----------------|------------------------2--0--1--2-|
A|2-----------------2----------------|-----------------------------------|
E|-----------------------------------|-----------------------------------|





e|------0- -------- -------- --------|-------- -------- ------0- ------0-|
B|------0-/3--3--3--3--3--3----------|------------------------0--------0-|
G|--------/4--4--4--4--4--4--2-P0----|------------------------0--------0-|
D|---------------------------------2-|------------------------0--------0-|
A|-----------------------------------|---------0--1--2-~-----------------|
E|0----------------------------------|0-----3----------------------------|  
                                                              Yeah   now 




e|-------- -------- ------0- ------0-|-------- -------- ------0- ------0-|
B|------------------------0--------0-|------------------------0--------0-|
G|------------------------0--------0-|------------------------0--------0-|
D|------------------------0--------0-|------------------------0--------0-|
A|-----------------------------------|-----------------------------------|
E|-----------------------------------|-----------------------------------|
  when     met you,             at a dance  'n' we did fine
     I first     baby




e|-------- -------- -------- --------|-------- -------- ------0- ------0-|
B|-----------------------------------|------------------------0--------0-|
G|-----------------------------------|------------------------0--------0-|
D|-----------------------------------|------------------------0--------0-|
A|-----------------------------------|-----------------------------------|
E|-----------------------------------|-----------------------------------|   
  Now when we're together it's a total waste of time             So I'm 
                                                                     cryin'




e|-------- 3-----3- -------- 3-----3-|------0- ------0- ------0- ------0-|
B|---------2-----2-----------2-----2-|------0--------0--------0--------0-|
G|------2--2-----2--------2--2-----2-|------0--------0--------0--------0-|
D|------2--2-----2--------2--2-----2-|------0--------0--------0--------0-|
A|-----------------------------------|-----------------------------------|
E|-----------------------------------|-----------------------------------|
                                            Why do I have     to feel this 



                         RU
e|------0- -------- 0----0-- --------|------0- ------0- ------0- ------0-|
B|------0--------3--3-----3----------|------0--3B4---0---HPHP-0--------0-|
G|------0-/4---------------4-2-P0----|0H1---------------01010-0--------0-|
D|------0--------------------------2-|------------------------0--------0-|
A|-----------------------------------|-----------------------------------|
E|-----------------------------------|-----------------------------------|
  way?                                                              If I




e|------0- ------0- ------0- 2-----0-|0-----0- ------0- ------0- ------0-|
B|------0--------0--------0--0-----0-|2-----0--------0--------0--------0-|
G|------0--------0--------0--0-----0-|0-----0--------0--------0--------0-|
D|------0--------0--------0----------|2-----0--------0--------0--------0-|
A|-----------------------------------|-----------------------------------|
E|-----------------------------------|-----------------------------------|
  can't    love  my baby                    I     can't live  another  day



                         RU
e|------0- -------- 0----0-- --------|------0- 3-----2- ------0- ------0-|
B|------0--------3--3-----3----------|------0--3-----2--------0--------0-|
G|------0-/4---------------4-2-P0----|------0--3-----2--------0--------0-|
D|------0--------------------------2-|2-----0--2-----1--------0--------0-|
A|-----------------------------------|---------3-----2-------------------|
E|-----------------------------------|-----------------------------------|       
                                                              Well     I




e|------0- ------0- ------0- ------0-|------0- ------0- -----0-- --------|
B|------0--------0--------0--------0-|------0--------0-------0-----------|
G|------0--------0--------0--------0-|------0--------0-------2B4R2-P0----|
D|------0--------0--------0--------0-|------0--------0-----------------2-|
A|-----------------------------------|-----------------------------------|
E|-----------------------------------|-----------------------------------|
  guess    just           fault   The truth I cannot hide              but     
        it's  my own   



e|------0- ------0- ------0- ------0-|------0- 0-----0- 0-----0- 0-----0-|
B|------0--------0--------0--------0-|------0--0-----0--0-----0--0-----0-|
G|------0--------0--------0--------0-|------0--0-----0--0-----0--0-----0-|
D|------0--------0--------0--------0-|------0--0-----0--0-----0--0-----0-|
A|-----------------------------------|-----------------------------------|
E|-----------------------------------|-----------------------------------|
  if I  get  you back     dear            right     side      I  won't be
                             I'll stay         by your               cryin'



e|0------- 3-----3- -------- 3-----3-|------0- ------0- ------0- ------0-|
B|0--------2-----2-----------2-----2-|------0--------0--------0--------0-|
G|0-----2--2-----2--------2--2-----2-|------0--------0--------0--------0-|
D|0-----2--2-----2--------2--2-----2-|------0--------0--------0--------0-|
A|-----------------------------------|-----------------------------------|
E|-----------------------------------|-----------------------------------|
                                            I'll   stay happy    that  a 



                         RU
e|------0- -------- 0----0-- --------|------0- ------0- ------0- ------0-|
B|------0--------3--3-----3----------|---------3B4---0---HPHP-0--------0-|
G|------0-/4---------------4-2-P0----|0H1---------------01010-0--------0-|
D|------0--------------------------2-|2-----------------------0--------0-|
A|-----------------------------------|-----------------------------------|
E|-----------------------------------|-----------------------------------|
  way.                                                        I'll     be 





e|------0- ------0- ------0- 2-----0-|0-----0- ------0- ------0- ------0-|
B|------0--------0--------0--0-----0-|2-----0--------0--------0--------0-|
G|------0--------0--------0--0-----0-|0-----0--------0--------0--------0-|
D|------0--------0--------0----------|2-----0--------0--------0--------0-|
A|-----------------------------------|-----------------------------------|
E|-----------------------------------|-----------------------------------|
  lovin'   my       baby                    every    night   and every 
               little


                         RU
e|------0- -------- 0----0-- --------|0-----0- 3-----2- ------2- 2-----0-|
B|------0--------3--3-----3----------|0-----0--3-----2--------2--2-----0-|
G|------0-/4---------------4-2-P0----|0H1---0--3-----2--------2--2-----0-|
D|------0--------------------------2-|2-----0--2-----1--------1--1-----0-|
A|-----------------------------------|---------3-----2--------2--2-----0-|
E|-----------------------------------|-----------------------------------|
  day



  03:10

e/0--0--0- 0--0--0- 0--0--0- 0--0--0-|---0--0- 0--0--0- 0--0--0- 0--0--0-|
B/12-12-12-12-12-12-12-12-12-12-12-12|---15-15-15-15-15-15-15-15-15-15-15|
G/13-13-13-13-13-13-13-13-13-13-13-13|---13-13-13-13-13-13-13-13-13-13-13|
D/14-14-14-14-14-14-14-14-14-14-14-14|---14-14-14-14-14-14-14-14-14-14-14|
A|-----------------------------------|-----------------------------------|
E|-----------------------------------|-----------------------------------|





e|---0--0- 0--0--0- 0--0--0- 0--0--0-|---0--0- 0--0--0- 0--0--0- 0--0--0-|
B|---12-12-12-12-12-12-12-12-12-12-12|---15-15-15-15-15-15-15-15-16-16-16|
G|---13-13-13-13-13-13-13-13-13-13-13|---13-13-13-13-13-13-13-13-17-17-17|
D|---14-14-14-14-14-14-14-14-14-14-14|---14-14-14-14-14-14-14-14-18-18-18|
A|-----------------------------------|-----------------------------------|
E|-----------------------------------|-----------------------------------|





e|0--0--0- 0--0--0- 0--0--0- 0--0--0-|---0--0- 0--0--0- 0--0--0- --------|
B|17-17-17-17-17-17-17-17-17-17-17-17|--20-20-20-20-20-20-20-20----------|
G|18-18-18-18-18-18-18-18-18-18-18-18|--18-18-18-18-18-18-18-18--14\0-/14|
D|19-19-19-19-19-19-19-19-19-19-19-19|--19-19-19-19-19-19-19-19----------|
A|-----------------------------------|-----------------------------------|
E|-----------------------------------|-----------------------------------|





e|---12-12 ---12-12 15B17-~- ---15B17|15B17-15 ~---12-- -------- --------|
B|---12-12----12-12------------------|--------------1512----------------12
G14B16----14B16----------------------|------------------14B16------14B16-|
D|-----------------------------------|----------------------16-----------|
A|-----------------------------------|-----------------------------------|
E|-----------------------------------|-----------------------------------|




e|12----12 14P12-12 15B17-15 12----12|------12 -------- -------- --------|
B|-15B17-------15--------------------|----12---15-12-------------------P-|
G|-----------------------------------|14B16---------\2---P-0-----2B4-R20-|
D|-----------------------------------|------------------------2---------2|
A|-----------------------------------|-----------------------------------|
E|-----------------------------------|-----------------------------------|





e|-----3B4 0------- 0------- --------|------0- -------- -------- --------|
B|---------0----3B4-0----------------|------0--7-----8----888888888888888|
G|0H1---------------------2--0-----1-|---------6-----7----777777777777777|
D|2----------------------------------|2--------5-----6----666666666666666|
A|-----------------------------------|---------6-----7----777777777777777|
E|-----------------------------------|-----------------------------------|





e|-------- -------- -------- --------|-------- -------- -------- --------|
B|88888888888888888888---------------|8----------------------------------|
G|77777777777777777777---------------|7----------------------------------|
D|66666666666666666666---------------|6----------------------------------|
A|77777777777777777777---------------|7----------------------------------|
E|-----------------------------------|-----------------------------------|









        RU Rake Up
        B  Bend
        R  Release
        /  Slide up
        \  Slide down
        H  Hammer-on
        P  Pull-off
        ~  Vibrato
        +  Harmonic
        x  Mute note
        .  Play note like a dot in standard notation
        ^  Ties two notes together
        (.  Pause
     




comments
print report bad tab
5 comments total. Showing first comments.
0 reply
St.Jimmy13 wrote on January 25 2007, 04:10 pm

y does this song sound like pride and joy with different lyrics?

0 reply
PJVILL wrote on January 27 2007, 07:35 am

You should ask Stevie that question.
I thought almost the same, long ago, the first time I heard the record.
Maybe that's the reason why I tabbed just one of them.
I must add that I didn't mind it at all at the time and greatly enjoyed both songs, mostly trying to catch and play along a great many times.
If you wanna have a really good time try to catch "Rude Mood".
I do respect the man.

0 reply
St.Jimmy13 wrote on February 1 2007, 04:59 pm

i dont mind it either man, there both pretty good songs

I want to post or [tab]
guest
You may want to rate the tab now too:
select rating
Please do not post tabs as comments. Select "correction" instead!