Oops, an error
Loading. Please wait.

Lenny Bass Tab

version 1
version 1

Whole song

Interactive

9,313 views 12 this week
no commentswrite comment
1 2 3 4 5
accurate
x 4
add to favorites
launch autoscroll
font size
0
reset
guitar tuner
Tab Pro tools
  • play this tab
  • loop segment
  • change instrument
  • show fretboard
  • metronome
×
Best way to learn
"Lenny"
Autoscroll
slow
fast
+/-
esc
set tempo
stop
Contributor
Difficulty
intermediate
Stevie Ray Vaughan - Lenny

Tunning - tune one half step down
low to high Eb,Ab,Db,Gb

:24
Gb-------------9-------------9---9\\11--9--11-9---------------------9--------|
Db----9~--9\\11----11-9--7----------------------11-9--------9~-9\\11----11-9-|
Ab------------------------0--------------------------------------------------|
Eb0-0-------------------------------------------------0--0-------------------|

Gb------9--9\\11-9-------10---------11---------------------------------------|
Db-7--------------11-8-----8--9--9-----9---------------------7---------------|
Ab---0------------------------------------9----------0--5--5-----5--5~-------|
Eb------------------------------------------7--7-6-7-------------------0-5-0-|

Gb------------------------------------------------------9----------|
Db--------5---5------------8--------------------9~-9\\11----11-9---|
Ab------5-------3--------------------------------------------------|
Eb-3-3~-----------3-0--6------6--5----5-----0----------------------|

Gb-----9---9\\11--9-----9----------------------9-----------------------------|
Db-7---------------11----11--9/------9~-9\\11-----11-9-7----7--7-7~-6-7------|
Ab---0--------------------------------------------------0---------------9----|
Eb--------------------------------0------------------------------------------|

1:11
Gb---------------------------------------------------------9-----------|
Db------------------------7---------------------9~--X-9\\11---11-9-X---|
Ab-7---7~--------------------7-----------------------------------------|
Eb---0------0--4---0--5--------5--5~-3-5---0---------------------------|

Gb--------9-------9\\11---9----9--------------------------9----------|
Db-7-----------7-----------11---11-9/--------9-----9\\11----11-9-X---|
Ab---0-0-------------------------------------------------------------|
Eb--------------------------------------0----------------------------|

Gb--------------------------------------------9----------|
Db-7------------7---7~-7-7\\9--------9~--9\\11----11-9-0-|
Ab-----0-0--------0-----------7--------------------------|
Eb-------------------------------0-----------------------|

Gb-----0----9\\11-9----9-----------------------------------------------------|
Db-7---------------11---11-9/--------------------------------7---------------|
Ab---0----0-------------------------7----------7-----------------------------|
Eb-----------------------------0--0-----0-0------0-3-0--5--5----0-5-5~-4-5-0-|

Gb---------------------------------------------------------|
Db-------------------------------------7-------------------|
Ab---------7----7--------7---------------------------------|
Eb-0---0----------0--0-----0-3-0--5--5----0--5--5~-5--5h7--|

2:00
Gb------------9--------------9---9\\11--9----9---------------------9--------|
Db---9~-9\\11----11-9---7---7-------------11----11--9/----9~-9\\11-----11-9-|
Ab------------------------0-------------------------------------------------|
Eb-0---------------------------------------------------0--------------------|

Gb------9---9\\11--9----9---10-|
Db-7----------------11---8-----|
Ab---0-------------------------|
Eb-----------------------------|

2:16
Gb---------11-----------------------------7-----------------|
Db-9---9-9-------9--------------------7-----7---------------|
Ab-------------9---9-------------5-5~---------5----5--------|
Eb-------------------7--7-6-7-0----------------------0-5-0--|

Gb----------------------------------------------|
Db---------5---------------------8---7----7-----|
Ab-------5---5----------------8----8------------|
Eb-3-3~--------3~-2-3-0--6-------------------5--|

2:32
Gb-------------9------------9-----9\\11-9--------------|
Db-----9~-9\\11----11-9-7--------7--------11-9\\11--9--|
Ab-----------------------0-----------------------------|
Eb-0---------------------------------------------------|

2:40
Gb----------------------9-----------------9-------9\\11-9-----9--------|
Db--------9~-----9\\11-----11--9--7-----------------------11----11-9---|
Ab------------------------------------0--------------------------------|
Eb-0-------------------------------------------------------------------|

Gb---------------9------------9----9\\11-9----9---------------------9-------|
Db----9~--9\\11-----11-9-7--------7--------11---11-9/------9~--9\\11---11-9-|
Ab-------------------------0------------------------------------------------|
Eb-0--------------------------------------------------0---------------------|

Gb-------9-----9\\11-9----9----------------------------------------------|
Db-7------------------11---11-9/-----------------------------------------|
Ab----0------0--------------------------7---------------------7----------|
Eb--------------------------------0--0-------------0------------0-3-0----|

Gb---------------------------------------------------------------|
Db-------7------------7--5---------------------------------------|
Ab--------------------------7--5---------7--------------7--------|
Eb-5---5-----0--5--5--------------0---0------0---0--------0-3-0--|

Gb--------------------------------------------------------------|
Db--------7-------------7--7--7---------------------------------|
Ab----------------------------------------7---------------------|
Eb-5---5-------0--5--5------------0---0--------0~--------0-4-0--|

Gb---------------------------------------------------------------------------|
Db------7---7----7-5-7----------------------------------------------7---7\\9-|
Ab-------------------------------7----------7--------------7-----------------|
Eb-5--5-------5--------0---0---0---0-0---0----0-3-0--5---5----0--5-----------|

Gb-----------------------------------------------------------|
Db------------------------------------7-------------7--6--7--|
Ab------7------------7---------------------------------------|
Eb-0--0------0-0-------0-3-0---5----5-----0-7----7-----------|

Gb-------------9--------------9----9\\11-11-9-----------------------9-------|
Db----9~--9\\11---11-9---7--------------------11-9--------9--9-9\\11---11-9-|
Ab------------------------0-0----0------------------------------------------|
Eb-0------------------------------------------------0-----------------------|

Gb------9----9\\11--9----9---------|
Db-7-----------------11---11-9/----|
Ab---0-----0-----------------------|
Eb---------------------------------|

4:11
Gb--------------9--------------9---9\\11--9-----9---------|
Db-----9~--9\\11----11-9--7-----------------11----11-9/---|
Ab--------------------------0-----------------------------|
Eb-0------------------------------------------------------|

Gb------------9------------9-----9\\11---9----9----------|
Db-------9\\11----11-9-7-------11----------11----11-9/---|
Ab----------------------0--------------------------------|
Eb-0-----------------------------------------------------|

4:28
Gb--------9~-----9---9--9~~~----------|
Db------------------------------------|  Fade out while guitar plays last

Figure.
Ab------------------------------------|
Eb-0~----------------------------0~~--|
comments
print report bad tab
I want to post or [tab]
guest
You may want to rate the tab now too:
select rating
Please do not post tabs as comments. Select "correction" instead!