Oops, an error
Loading. Please wait.

Life By The Drop Bass Tab

version 1
version 1

Whole song

Interactive

4,132 views 3 this week
no commentswrite comment
1 2 3 4 5
x 3
add to favorites
launch autoscroll
font size
0
reset
guitar tuner
Autoscroll
slow
fast
+/-
esc
set tempo
stop
Help us to improve Ultimate-Guitar.com Take our survey!
×
Author
Difficulty
novice
Stevie Ray Vaughan - Life By The Drop



tuning: standard G,D,A,E

verse
G|---------------------------------------------2-2-4-4-2-2-4-4----|
D|-2-2-4-4-2-2-4-4------------------------------------------------|
A|-----------------2-2-4-4-2-2-4-4-----4-----4--------------------|
E|---------------------------------2-2---2-2----------------------|

G|-------------------------------------------------2-2-4-4-2-2-4-4|
D|-2-2-4-4-2-2-4-4------------------------------------------------|
A|-----------------2-2-4-4-2-2-4-4-----4-4-----4-4----------------|
E|---------------------------------2-2-----2-2--------------------|

chorus
G|---------------2-2-4-4-----------------------2-2-4-4------------|
D|----------------------------------------------------------------|
A|-----4-----4-4---------2-2-4-4-----4-----4-4---------2-2-4-4---5|
E|-2-2---2-2---------------------2-2---2-2---------------------2--|

G|----------------------------------------------------------------|
D|---2-2-4-4-2-2-4-4-2-2-4-4-2-2-4-4------------------------------|
A|----------------------------------------------------------------|
E|-0--------------------------------------------------------------|
Suggest correction
Give kudos to tab author, rate the tab!
1 2 3 4 5
comments
print report bad tab
guest
You may want to rate the tab now too:
select rating
Wanna post a correction for this tab? Suggest correction