Oops, an error
Loading. Please wait.

Life By The Drop Chords

version 1
version 1

Whole song

Interactive

Video

153,203 views 234 this week
3 commentsread comments
1 2 3 4 5
excellent!
x 105
add to favorites
launch autoscroll
font size
0
reset
transpose
0
reset
simplify chords
display chords
guitar tuner
Tab Pro tools
  • play this tab
  • loop segment
  • change instrument
  • show fretboard
  • metronome
×
Best way to learn
"Life By The Drop"
Autoscroll
slow
fast
+/-
esc
set tempo
stop
Contributor
Life By The Drop Tab by Stevie Ray Vaughan

e|---------------------------------------------------------|
b|---------------------------------------------------------|
g|-----------0--------------0h2-0------------------------2-|
D|-----0-1/2---0-h1p0---0---------2-1-0-h1p0---0---0-------|
A|-0h3----------------3---3------------------3---3---3-0---|
E|---------------------------------------------------------|

e|-2--2------------------2-|--------------------|
b|-2--2------------------2-|--------------------|
g|-2--2------------------2-|--------------------|
D|-4--4------------------4-|-0-2-2h4-2--2h4p2-0-|
A|-4--4------------------4-|--------------------|
E|-x--x---------2----2---x-|--------------------|


A            E             
Hello there, my old friend 
F#m                      D   
Not so long ago, it was 'till the end
A                          E            
We played out side, in the pourin' rain 
F#m                     D 
On our way up the road, we started over again

Chorus
F#m                  D      E
Livin' the dream, of you on top
F#m                  D      E
My mind is achin', and lord it wont stop
F#m             D7               E           A
That's how it's happened, livin' Life by the drop

A                             E
Up and down that road, in our worn out shoes 
F#m                            D
Talkin' 'bout good things, and singin' the blues
A                      E
You went your way, and I stayed behind
F#m                         D
We both knew, it was just a matter of time

Chorus
A                             E
No waste of time, we're allowed today
F#m                            D
Churnin' up the past, there's no easier way
A                             E
Times been between us, a means to an end
F#m                                   D7
God, It's good to be here, walkin' together my friend

F#m                 D-0-2-2h4-2--2h4p2-0    
Livin' the dream!
F#m                 D-0-2-2h4-2--2h4p2-0
My mind stoped achin'!
F#m             D7               E           A
That's how it's happened, livin' Life by the drop
F#m             D7               E           A
That's how it's happened, livin' Life by the drop
comments
print report bad tab
3 comments total.
+1 reply
KEITH NAHDEE wrote on May 3 2014, 12:45 am

THESE CHORDS/WORDS ARE VERY LOVELY. I NAILED IT ON THE FIRST TIME AROUND. I KNEW I HAD IT IN ME BUT THIS IS UNREAL. I HIGHLY RECOMMEND THIS TO ANYONE. LOVE THIS SITE, IT'S AWESOME. I ESPECIALLY LIKE THE 'AUTOSCROLL', WHAT A FANTASTIC FEATURE!!! STEVIE WAS WITH ME TONITE ON THIS ONE, LOVE YA BROTHER STEVIE!

0 reply
chordmapper wrote on May 8 2015, 08:40 pm

Thanks Keith Nahdee. I appreciate it

+2 reply
axe_masta_420 wrote on May 15 2015, 05:11 pm

e|--------------------------------------------------------|
b|--------------------------------------------------------|
g|-----------0--------------0h2-0-----------------------2-|
D|-----0-1/2---0-h1p0---0---------2-1-0-h1p0---0---0------|
A|-0h3----------------3---3------------------3---3----0---|
E|--------------------------------------------------------|

Correction. only one note change/removal between 3rd and 2nd last.

I want to post or [tab]
guest
You may want to rate the tab now too:
select rating
Please do not post tabs as comments. Select "correction" instead!