Oops, an error
Loading. Please wait.

Pride And Joy Tab

version 3
version 3

Whole song

Interactive

Video

36,299 views 174 this week
3 commentsread comments
1 2 3 4 5
x 7
add to favorites
launch autoscroll
font size
0
reset
how to read this tab
guitar tuner
Autoscroll
slow
fast
+/-
esc
set tempo
stop
Help us to improve Ultimate-Guitar.com Take our survey!
×
Author
Difficulty
intermediate
Tuning - Eb,Ab,Db,Gb,Bb,Eb

[Intro]
(0:00)
(Blues Shuffle = 128)
(Guitar w/ distortion)
e|-0----0-0-0-0-0----7-7^-7^-7^-7^-7^-7^\---0----0-0-0-0-0-0-0-|
B|-3/5--5-5-5-5-5----8-8^-8^-8^-8^-8^-8^\---3/5--5-5-5-5-5-5-5-|
G|----------------0----------------------0---------------------|
D|----------------0----------------------0---------------------|
A|----------------0----------------------0---------------------|
E|-------------------------------------------------------------|

e|-0--------------------------------------------0-2---0-0--------------|
B|-5\----------0---0----0---0---0---0---0---0---0-2---0-0----0---0---0-|
G|---0-2^--(2)-0---0----0---0---0---0---0---0---0-2---1-0----0---0---0-|
D|---0---------0-2-0----0---0---0---0-2-0---0-------2--------0---0---0-|
A|---0----------------2-------2---4-----------2-----2----------2---4---|
E|--------------------0---3h4-------------3h4-------0------3h4---------|

e|-----------0-2-0---0---0-------------------0-2---0-0-------------|
B|---0---0---0-2-0---0---0---0---0---0---0---0-2---0-0---0---0---0-|
G|---0---0---0-2-0-2-0---0---0---0-2-0---0---0-2---1-0---0---0---0-|
D|-2-0---0---------2-------2-0-4-0---0-----2-----2-2-0---0---0---0-|
A|---------2-------0---3h4-------------3h4-------2---------2---4---|
E|-----3h4---------------------------------------0-----3h4---------|

e|---------------------------------------------------------------------------------------------|
B|---0---0---0-----3-0---3----------------------------------------------0-2/3-3-3--3-3-3-------|
G|---0---0---0-2/4---2/4---4\2p0----------------------------------------0-3/4-4-4--4-4-4-2-0---|
D|-2-0---0---0-------------------2-------0-1-2-0-----------------2--(2)-0--------------------2-|
A|---------2-----------------------0h2-2-------0-2-1-0h1p0---0---------------------------------|
E|-----3h4-------------------------------------------------3---3-----0-------------------------|

e|----------------------|
B|----------------0---0-|
G|----------------0---0-|
D|-(2)------------0---0-|
A|------0-1-2-(2)-------|
E|--0-3-----------------|

[Verse 1]
(0:31)
e|------------------------------------0-0-------------|
B|-0---0---0---0---0---0--------------0-0---0---0---0-|
G|-0---0---0---0---0---0---2^-(2)p0---1-0---0---0---0-|
D|-0---0---0---0---0---0------------2-------0---0---0-|
A|----------------------------------2-----------------|
E|----------------------------------------------------|

e|-----------0----------------3-3-(3)^-0---0---0---0---0---0-|
B|-0---0---0-0--x---0---0---2-2-2-(2)^-0---0---0---0---0---0-|
G|-0---0---0-0--x---0---0---2-2-2-(2)^-0---0---0---0---0---0-|
D|-0---0---0-0--x---0---0---2-2-2-(2)^-0---0---0---0---0---0-|
A|------------------0---0------------------------------------|
E|-----------------------------------------------------------|

e|-0---0---0---0-----------------------------0-2---0-0-------0~-0-------|
B|-0---0---0---0-----------------0---0---0---0-2---0-0-----3~---3-------|
G|-1---1---1---1-----4---4---4---0---0---0---0-2---1-0-2/4------4\2p0---|
D|-2---2---2---2p0---4---4-4-4-6-0-2-0-----2-0---2--------------------2-|
A|-----------------2---5h6-0---0---0---3h4-0-----2----------------------|
E|----------------------------------------------------------------------|

e|----------------------|
B|----------------0---0-|
G|----------------0---0-|
D|-(2)------------0---0-|
A|------0-1-2-(2)-------|
E|--0-3-----------------|

[Verse 2]
(0:54)
e|-0---0---0---0---0---0---0---0---0---0---0---0-|
B|-0---0---0---0---0---0---0---0---0---0---0---0-|
G|-1---1---1---1---1---1---1---1---1---1---1---1-|
D|-2---2---2---2---2---2---2---2---2---2---2---2-|
A|-----------------------------------------------|
E|-----------------------------------------------|

e|-0---0---0---------3-3-(3)^---3-3-(3)^-----------------------0-0-2-0-|
B|-0---0---0-----------2-(2)^---2-2-(2)^-0-----------0---0-2---0-0-2-0-|
G|-1---1---1-----------2-(2)^-2-2-2-(2)^-0-----------0-1-1-2---1-1-2-1-|
D|-2---2---2------------------2-2-2-(2)^-0-----------0-2-2-2-2---------|
A|---------------0-0---------------------------2-2-4---2---------------|
E|-----------3-4---------------------------3-4---------0---------------|

e|-0-2---0-0------------------------------------------------------------------|
B|-0-2---0-0-2-0---------------0-----------------------0-2/3-3-3--3-3-3---0---|
G|-1-2---1-1-2-0-4-4---4---4---0-----------------------0-3/4-4-4--4-4-4\2-0---|
D|-2-2-2-2-2-2-0-4-4---4-4-4-6-0-2-2-----2-2-5p0-2-(2)----------------------2-|
A|---------------2---5-6-0---0---0-0-3-4-0-0----------------------------------|
E|--------------------------------------------------0-------------------------|

e|---------------------|
B|---------------0-0-0-|
G|---------------0-1-1-|
D|---------------0-2-2-|
A|-----0-1-2-(2)-------|
E|-0-3-----------------|

[Verse 3]
(1:17)
e|--------0---------0----------------0----------|
B|-0----0-0---------0----0-----------0--------0-|
G|-1----0-2^-(2)0---1----0-2^-(2)0---1--------0-|
D|-2----0---------2-2----0---------2-2--------0-|
A|----------------------------------------------|
E|----------------------------------------------|

e|-----0-0--0-0-0--0-0-0-----------------------3-0-------0-2---0-------0--------------|
B|-2/3-3-3--3-3-3--3-3-3---0-------------------2-0---0---0-2---0-0---0---3p0----------|
G|-3/4-4-4--4-4-4--4-4-4\2-0-----2-2---2-2-----2-0---0---0-2---1-0-2^--------2^-2p0---|
D|---------------------------2-2-2-2---2-2-4-2-2-0---x-2-----2-2-0------------------2-|
A|-----------------------------0-0-3-4-0-0-0-0-0-0-3-4-------2------------------------|
E|-----------------------------------------------------------0------------------------|

e|-----0------0-----------------------2-----2-(2)-2---3p0-------0-------------------------0~-0-------|
B|-----0---3^-0-------0---------------0-----0-(0)-0-------3-----3-----------------0-----3~3~-3-------|
G|-----1--------0h1p0-0---------2-(2)-2---2-2-(2)---0-------2/4-4-2-0-------------0-2/4------4\2p0---|
D|-(2)-2-2------------0---------1-(1)-----1---------0-----------------2-0-1-2-(2)-0----------------2-|
A|--2----2----------------0-1-2---------------------0------------------------------------------------|
E|--0----0--------------3---------------2--------------------------------------0---------------------|

e|---------------------0--0--|
B|---------------0-/12-12-12-|
G|---------------0-/13-13-13-|
D|---------------0-----------|
A|-----0-1-2-(2)-------------|
E|-0-3-----------------------|

[Guitar 1 Solo]
(1:39)
e|-12--------------------0~---------------2~----2~-------/17\-0-3^-0--------------------0---------0-0--------|
B|-15------------0-------0~---------------0~----0~---0-0------0-3^-0-3------------------------3-3-3-3--------|
G|----\2^-(2)(2)-0---0h1------------2-(2)-----2-2~-x/0-0-------------3-2-3p2-(2)0---------2/4-4-4-4-4-2-0----|
D|-----------------2----------------1-(1)-----1------0-0--------------------------2-(2)-------------------2~-|
A|----------------------------0-1-2--------------------------------------------------2-----------------------|
E|--------------------------3---------------2----------------------------------------0-----------------------|

e|-------3-2-(2)-0-----0-0-0-0-0-0-0-0-0-0-0-0-0---7-7^-7-(7)^-7^------------0-----0-0-(0)0---|
B|-------3-2-(2)-0-3/5-5-5-5-5-5-5-5-5-5-5-5-5-5---8-8^-8-(8)^-8^-----------/5-----5-5-(5)5---|
G|-0h1---3-2-(2)-0------------------------------------------------9\2p0--------0-0----------0-|
D|-----0-----------------------------------------0----------------------2------0-0----------0-|
A|-----0-----------------------------------------0-----------------------------0-0----------0-|
E|-----0-----------------------------------------0------------------------0-------------------|

e|-7-7^-7^-7^-7^-7-------0-0-0-0-0-0-0-0-0--------------0~----0---------------|
B|-8-8^-8^-8^-8^-8---7/8-8-8-8-8-8-8-8-8-8-8------------0~-3^-0-3-----3-------|
G|-----------------0-8/9-9-9-9-9-9-9-9-9-9-9-\2p0---0h1-----------2/4-4-2-0---|
D|-----------------0------------------------------2-------------------------2-|
A|-----------------0----------------------------------------------------------|
E|----------------------------------------------------------------------------|

e|-----0------0-------0--------------2-----2-2-2-0-3^-0-------0-----------------------0~-------|
B|---------3^-0-------0--------------0-----0-0-0-0------3-----3---------------0-----3-3~-------|
G|--------------0h1p0-0---------2-(2)----2---2-2-0--------2/4-4\2-0-----------0-2/4---4~\2p0---|
D|-(2)---2----------------------1-(1)----1--------------------------2-0-1-2---0--------------2-|
A|-------2----------------0-1-2----------------------------------------------------------------|
E|--0-------------------3--------------2------------------------------------0------------------|

e|---------------------|
B|---------------0---0-|
G|---------------0---0-|
D|---------------0---0-|
A|-----0-1-2-(2)-------|
E|-0-3-----------------|

[Verse 4]
(2:25)
e|-----------------------0---|
B|-0---0-----------------0-0-|
G|-0---0--------2^-(2)p0-1-0-|
D|-0---0-----------------2-0-|
A|---------------------------|
E|---0-----------------------|

e|-------------------3-3-(3)---3-3-(3)^---------0---0---0---0-|
B|-------------------2-2-(2)-2-2-2-(2)^-0---0---0---0---0---0-|
G|-0---0---0---0-----2-2-(2)-2-2-2-(2)^-0---0---1---1---1---1-|
D|-0---0---0---0---2-2-2-(2)-2-2-2-(2)^-0---0---2-------------|
A|-----------------0------------------------------------------|
E|------------------------------------------------------------|

e|-0---0-0-0-0----------2~-(2)-2---2-------3---3-3---------0---------------------|
B|-0---0---0---0--------0~-(0)-0-----------2---2-2---------0-----3-3-3-3-3---0---|
G|-1---1---1---0------2-2~-(2)-2-----0-2-2-2-2-2-2---------0-2/4-4-4-4-4-4-2-0---|
D|-------------0----1-1--------------0-2-2---2-------2-(2)---------------------2-|
A|----------------2-2-2--------------0-0-0---0-----------------------------------|
E|-------------------------------2-----------------3^---0------------------------|

e|---------------0-----|
B|---------------0---0-|
G|---------------0-1-0-|
D|---------------0-2-0-|
A|-----0h1-2-(2)-0-2-0-|
E|-0-3-------------0---|

[Verse 5]
(2:47)
e|---0---0---0---0---0---0-0-0-0-0---0---0---0---0-|
B|---0---0---0---0---0---0---0---0---0---0---0---0-|
G|-1-1---1---1---1---1---1---1---1---1---1---1---1-|
D|-2-2---2---2---2---2---2---2---2---2---2---2---2-|
A|-2-----------------------------------------------|
E|-0-------------------------------0---------------|

e|---0---0---0---------3-3-(3)^---3-(3)^-------------------2---0---2---|
B|---0---0---0---------2-2-(2)^-2-2-(2)^-0-----------------2---0---2---|
G|---1---1---1---------2-2-(2)^-2-2-(2)^-0---0-------0-----2-0-1---2---|
D|---2---2---2---------2-2-(2)^-2-2-(2)^-0---0-2-2-4-0-----2-0-2-2-2-2-|
A|-----------------0-0-----------------------x-0-0-0-0-------0---2---2-|
E|-0-------0---3-4-------------------------3-4---------0-0-------0---0-|

e|---------0-0-(0)0---------2~--2~--------3-(3)^-0-----------------------------------------|
B|-----2---0-0-(0)0---------0~--0~------2-2-(2)^---3-----3-----------0-2/3-3-3-3-3-3-------|
G|-1-1-2---1-1-(1)1-0-----2-2~--2~----0-2-2-(2)^-----2/4-4-2-0-------0-3/4-4-4-4-4-4-2p0---|
D|-2-2-2---2-2-(2)2-0---1-------1~----0-2----------------------2-(2)---------------------2-|
A|-2-2---0-2-2-(2)2-0-2-2-------------0-0--------------------------------------------------|
E|-0-0---0-0-0-(0)0-0---------2---2-2-----------------------------0------------------------|

e|---------------0---------|
B|---------------0-----3-3-|
G|---------------0-2/4-4-4-|
D|-------------------------|
A|-----0-1-2-(2)-----------|
E|-0-3---------------------|

[Outro Guitar Solo]
(3:10)
e|-------------------0-0-0-----0-0-0-0-0-0-0-0-0-0-0-|
B|-3-3-3-3-3-3-3-3-3-3-3-3-3/5-5-5-5-5-5-5-5-5-5-5-5-|
G|-4-4-4-4-4-4-4-4-4-4-4-4-4/6-6-6-6-6-6-6-6-6-6-6-6-|
D|---------------------------------------------------|
A|---------------------------------------------------|
E|---------------------------------------------------|

e|----12-12-15^-(15)15^-15^-15^-15~-12--------------------------|
B|----12-------------------------------15-12--------------------|
G|-14^---------------------------------------14^(14)12----12-14^|
D|-----------------------------------------------------14-------|
A|--------------------------------------------------------------|
E|--------------------------------------------------------------|

e|----12-12------------------------------3^-0----0----------0---------------------------|
B|----12----15-15-----------------------------3^-0----------0-7-8-(8)~------------------|
G|-14^---------14^-14(14)12------------------------2^-0-1---0-6-7-(7)~------------------|
D|--------------------------14-12~-14\--------------------2---x-x-(-)~------------------|
A|------------------------------------------------------------6-7-(7)~------------------|
E|-------------------------------------0-------------------------------0~~~~~~w/bar---0-|


************************************

| /    Slide up
| \    Slide down
| (n)  Ghost note
| h    Hammer-on
| p    Pull-off
| x    Dead note
| ~    Vibrato

************************************
Suggest correction
comments
print report bad tab
3 comments total.
0 reply
punk-man12 31 Dec 07, 2006 03:42 PM

Amazing, your a superhuman.

0 reply
ajpisarski@msn 10 Dec 03, 2007 12:18 PM

you gotta be crazy! it must have taken you hours to tab that you did it perfect though

-1 reply
Frito333 10 Jun 01, 2008 01:30 PM

THIS IS ALL COMPLETELY WRONG.possibly.it's too hard.there are way easier ways to play it.

guest
You may want to rate the tab now too:
select rating
Wanna post a correction for this tab? Suggest correction