Oops, an error
Loading. Please wait.

Riviera Paradise Bass Tab

version 1
version 1

Whole song

Interactive

5,169 views 12 this week
no commentswrite comment
1 2 3 4 5
please rate
add to favorites
launch autoscroll
font size
0
reset
guitar tuner
Autoscroll
slow
fast
+/-
esc
set tempo
stop
Help us to improve Ultimate-Guitar.com Take our survey!
×
Author
Difficulty
novice
Stevie Ray Vaughan - Riviera Paradise

Tuning: tuned down one half step
low to high: (Eb, Ab, Db, Gb)


:27
Gb----------------------------------------------9----|
Db-------------------------------------------9~------|
Ab------7--7----------------------------9------------|
Eb-0--7---------0--5~-0-5-5---7\\--0--/7-------------|

Gb-------------------------------------------------------------|
Db-7--7------------------------3---3----------------5~-4--0----|
Ab-------7-------------------3-------------------/5------------|
Eb---------5--5--4~\\0--1--1----------1--1--3--3---------------|

Gb--------------------------------------------------------------|
Db-3--3----3--3~---3--5--5--------------------------------------|
Ab-------3-------3---------/5------------6~----6--6-8-8/10-8-6--|
Eb----------------------------3-3--2--0------6------------------|

Gb-----------------------9/11---9\\-----------9/11---9\\---|
Db-------------------9-------------------9-----------------|
Ab-/9~-----------------------------------------------------|
Eb------0-7-7----0-------------------0---------------------|

1st Guitar Solo/1st Chorus  1:17
Gb----------------------------------------------9--               |
Db-------------------------------------------9~----               |
Ab------7--7----------------------------9----------               |
Eb-0--7---------0--5~-0-5-5---7\\--0--/7------------              |
          							  |
Gb-----------------------------------------------------------     |
Db-7--7------------------------3---3----------------5~-4--0--     |
Ab-------7-------------------3-------------------/5----------     |
Eb---------5--5--4~\\0--1--1----------1--1--3--3--------------    |  X7
               							  |
Gb--------------------------------------------------------------  |
Db-3--3----3--3~---3--5--5--------------------------------------  |
Ab-------3-------3---------/5------------6~----6--6-8-8/10-8-6--  |
Eb----------------------------3-3--2--0------6------------------  |
 								  |
Gb-----------------------9/11---9\\-----------9/11---9\\--        |
Db-------------------9-------------------9--------------          |
Ab-/9~--------------------------------------------------          |
Eb------0-7-7----0-------------------0------------------          |

7:51
Gb----------------------------------------------9-------------------------|
Db-------------------------------------------9~----7--7-------------------|
Ab------7--7----------------------------9----------------7----------------|
Eb-0--7---------0--5~-0-5-5---7\\--0--/7--------------------5--5--4~\\0---|

Gb-----------------------9/11~-9--9\\7---------------|
Db------------------------------------9--------------|
Ab------0-1-2--2-------------------------------------|
Eb-2---------------0~-------------------0~-0-0-0~----|
Suggest correction
Give kudos to tab author, rate the tab!
1 2 3 4 5
comments
print report bad tab
guest
You may want to rate the tab now too:
select rating
Please do not post tabs as comments. Select "correction" instead!