Oops, an error
Loading. Please wait.

Shake For Me Bass Tab

version 1
version 1

Whole song

Interactive

1,413 views 6 this week
1 commentread comment
1 2 3 4 5
please rate
add to favorites
launch autoscroll
font size
0
reset
guitar tuner
Tab Pro tools
  • play this tab
  • loop segment
  • change instrument
  • show fretboard
  • metronome
×
Best way to learn
"Shake For Me"
Autoscroll
slow
fast
+/-
esc
set tempo
stop
Contributor
Stevie Ray Vaughan-Shake For Me
Tabbed By:Bassist 87

In Bb Major
Intro
   4(Eb)                   1(Bb)
G|----------------------------------------------------------|
D|--------4-4--6-6-7-7--------------------------------------|
A|--6-6-------------------------4-4-6-6-7-7-----------------|
E|-------------------------6-6----------------6-6-6-6-6-6-6-|

Verse/Chorus/Solo
   1(Bb)                                4(Eb)
G|---------------------------------------------------------------------------|
D|------------------------------------------4-4--6-6-7-7-------4-4---6-6-7-7-|
A|------4-4--6-6-7-7------4-4--6-6-7-7--6-6---------------6-6----------------|
E|--6-6---------------6-6----------------------------------------------------|
   5(F)                4(Eb)              1(Bb)
G|-----------------------------------------------------------------------|
D|------6-6--8-8-9-9--------4-4--6-6-7-7---------------------------------|
A|-8-8------------------6-6-------------------4-4-6-6-7-7----------------|
E|----------------------------------------6-6--------------6-6-6-6-6-6-6-|

At the end
pause at the 4(Eb) an then on end on the first(Bb)
comments
We did not receive enough feedback on this tab! Please rate:
print report bad tab
1 2 3 4 5
1 comment total.
0 reply
Nitrocide595 wrote on December 2 2010, 09:19 am

Good tab :)

I want to post or [tab]
guest
You may want to rate the tab now too:
select rating
Please do not post tabs as comments. Select "correction" instead!