Oops, an error
Loading. Please wait.

Texas Flood Tab

version 2
version 2

Whole song

Interactive

87,719 views 252 this week
5 commentsread comments
1 2 3 4 5
x 32
add to favorites
launch autoscroll
font size
0
reset
how to read this tab
guitar tuner
Autoscroll
slow
fast
+/-
esc
set tempo
stop
Help us to improve Ultimate-Guitar.com Take our survey!
×
TEXAS FLOOD
As recorded by Stevie Ray Vaughan and Double Trouble
(From the 1983 Album TEXAS FLOOD)

Words and Music by Larry C. Davis & Joseph W. Scott

Gtr I (Eb Ab Db Gb Bb Eb) - 'Stevie Ray Vaughan - Lead / Rhythm slightly dirty electric'


[Intro]

Q.=62
12/8
Gtr I
                     ~
  E E E   a Q  E  Q  E E a E a E a  E E  E
e|-------|---3--5--3----x---5---5-----------|
B|-------|---3--5--3----x-3h5-3h5-----------|
G|---2---|-3h4--5--4----x---4---4-----------|
D|---2-5-|------------5-x--------------7-10-|
A|-5-----|------------------------7s10------|
E|-------|----------------------------------|


   a Q   E a Q   E E  E  E  E   E  E
e|---8--10---8-------15-15\---/15-15\--|
B|---8--10---8-------15-15\---/15-15\--|
G|-8h9--10-8h9-------15-15\---/15-15\--|
D|--------------10-x-14-14\---/14-14\--|
A|-----------------x-------------------|
E|-----------------x-------------------|
                              |-3-|

   a    +S   S S a    +S   S S S S S S S S    +S   a    +S   S S E    +S   S    +E  +S  S S
e|-------------3-------------5-3h4p3---3-6b8==(6)r-6b7==(6)r-3------------------------------|
B|-----------3---6b7==(6)r-3---------6-------------------------3----------------------------|
G|-3b4==(3)r-----------------------------------------------------5b6==(5)r-3b5==(3)r(3)-----|
D|--------------------------------------------------------------------------------------5-5-|
A|------------------------------------------------------------------------------------------|
E|------------------------------------------------------------------------------------------|
 
              ~~~~~~                     ~~~~
   a    +S   S +Q   E S E.  Q   +S  S E E E
e|--------------------------------------------|
B|----------------------------------0---8-8---|
G|-3b4==(3)r----------------5---(5)-0---------|
D|-----------5-(5)----------4---(4)-----------|
A|------------------3-4-5--(5)--(5)-----------|
E|--------------------------------------------|

                ~~     ~~
   S     +S   S E. +S  E. S S S S S a    +S  +S  S    +S  +S  a  E E
e|-8b10==(8)r-6---------------6--------------------------------------|
B|--------------8--(8)-8--8-8---8------------------------------------|
G|--------------------------------7----------------------------------|
D|----------------------------------5b7==(5)r(5)p3b4==(3)r(3)--------|
A|-------------------------------------------------------------------|
E|------------------------------------------------------------5s15S3-|

                                     ~~~~~~~~~~
   E E S S S E.    +E   a     +E   S E. Q  S S
e|-x-------6-8b10==(8)r-8b10==(8)r-6-----------|
B|-x---8-8---------------------------8--8--8-8-|
G|-x-------------------------------------------|
D|---------------------------------------------|
A|---------------------------------------------|
E|---------------------------------------------|

                     ~~~~~~~~
   a     +E.  S     +E  +Q.    E S S     +E   Q      +S   S
e|-8b10==(8)r-8b10==(8)-(8)r-------8b10==(8)r-8pb9===(8)r-7-|
B|----------------------------------------------------------|
G|----------------------------------------------------------|
D|----------------------------------------------------------|
A|----------------------------------------------------------|
E|----------------------------------------------------------|

   ~~~~~~~
   Q  S S E    +E   E    +E   E    +E   Q      +E
e|--------6b7==(6)r-7b8==(7)r-7b8==(7)r-8b10===(8)r-|
B|-8--8-8-------------------------------------------|
G|--------------------------------------------------|
D|--------------------------------------------------|
A|--------------------------------------------------|
E|--------------------------------------------------|

                ~~                                    ~~
                                    |-3-|
   a     +E   S E. S S a    +S  +S  S S S E    +E   T S.  Q   E
e|-8b10==(8)r-6-------------------------------------3----17\----|
B|--------------8--6-------------------------------------17\----|
G|-------------------7-5b7==(5)r(5)p3---3-5b7==(5)r---3--17\----|
D|------------------------------------5-------------------------|
A|--------------------------------------------------------------|
E|--------------------------------------------------------------|

                               ~~
          |3|
   Q  S S E S     +E  S S E  S E. Q  S S
e|--------6-8b10==(8)-8-8-8r-6-----------|
B|----8-8----------------------8--8--5-8-|
G|---------------------------------------|
D|---------------------------------------|
A|---------------------------------------|
E|---------------------------------------|


             ~~~
   S    +S  +Q   +S   S Q  E a     +Q    S    +E.     +S  +S
e|-6b7==(6)-(6)--(6)r--------8b10==(8)r--6b8==(6)b10==(6)-(6)r-|
B|-------------------------------------------------------------|
G|-------------------------------------------------------------|
D|-------------------------------------------------------------|
A|-------------------------------------------------------------|
E|-------------------------------------------------------------|


    ~~~~~~                                    ~~
  |3|                       |-3-| |----3----|
  S E +Q   S s a    +S  +S  S S S S    +S   S E. S S     S S S S T T
e|-6-----------------------------------------3--------------3---3-3h5-|
B|---8-(8)--6p3-----------------------------------0-------3---6-3-----|
G|--------------5b7==(5)r(5)p3---3-5b7==(5)r---3----5b5.5-------------|
D|-----------------------------5--------------------------------------|
A|--------------------------------------------------------------------|
E|--------------------------------------------------------------------|


                                           ~
             |3|         |-3-|
   +E  a E a E S S S S S S S S    +E   S S E E E S S
e|-(5)-3h5-3h5-4p3-----3-----------------------------|
B|-----------------6-3---6-3-----------------3---3-3-|
G|---------------------------5b7==(5)r-5-3-5---------|
D|---------------------------------------------------|
A|---------------------------------------------------|
E|---------------------------------------------------|


   Q.     +Q.      +Q    E E.   +S   a    +E
e|-----------------------3---------------------|
B|-6b7====(6)b8====(6)r------------------------|
G|-------------------------5b7==(5)r-5b7==(5)r-|
D|---------------------------------------------|
A|---------------------------------------------|
E|---------------------------------------------|


  |-3-|                                                        |-3-|
  S S S  Q   a S S S a    +S   S a    +S   S E.   +E   S S S S S S S
e|------------------3-------------------------------------------------|
B|----------------3---6b7==(6)r-3-------------------------------------|
G|-5p3--------3h4-----------------5b6==(5)r-5-3b5==(3)r---------------|
D|-----5-(5)--------------------------------------------5-3-----------|
A|----------------------------------------------------------5-4-3h4p3-|
E|--------3-----------------------------------------------------------|


   S S Q     +E     S S E Q.   +Q   E
e|------------------------------------||
B|------------------------------------||
G|------------------------5----(5)----||
D|-----3tr5--(3tr5)-------4----(4)----||
A|------------------3-4-5-------------||
E|-6-3--------------------------------||


[Verse 1]
                                   ~~
   Q.   Q.   a a a a E E E E E E   Q.   Q.   H.
e|---------------------3-3-------|-3-----------------|
B|-----------x---------5-5-------|-3-----------------|
G|-------------x-------4-4-------|-3-----------------|
D|---------------x---------------|-------------------|
A|-----------------x-------------|-------------------|
E|-------------------3-------3-3-|-------------------|


                                                          ~~~~~~~~~~~~~
  |---3---|
  S     S S a Q  S S E.    +S   a     +E   T S. E S a    +S  +E  +S.  T
e|---------3------6---8b10==(8)r-8b10==(8)r-7-------------------------------|
B|-------3---6s8----8-------------------------8--6--------------------------|
G|-5b5.5-------------------------------------------7-5b7==(5)-(5)-(5)rp0----|
D|--------------------------------------------------------------------------|
A|--------------------------------------------------------------------------|
E|--------------------------------------------------------------------------|


                      |-3-|             |-3--|
  S S S S S S T T T T S S S S a    +S  +S  S S S. T T T S Q.
e|-----3-----5-3h4p3-----3--------------------------------------|
B|---3---6-3---------6-3---6-3----------------------------------|
G|-5---------------------------5b6==(5)r(5)p3---3--0------------|
D|--------------------------------------------5------5p3--------|
A|-------------------------------------------------------5------|
E|--------------------------------------------------------------|


                               ~
   H.      E E.   +S   E E E   H    Q  H.
e|---------------------3-----|-3-------------|
B|---------------------------|-3-------------|
G|-----------5b7==(5)r-----3-|-3-------------|
D|---------------------------|---------------|
A|---------------------------|---------------|
E|-----------------------3---|---------------|


           ~                             ~~~~~
   |-3-|      |3|
   S S S a Q  S E E.    +S   a    +E   S E. Q  S S
e|-----3------6---8b10==(8)r-6b8==(6)r-6-----------|
B|---3-----8----8------------------------8--8--8-8-|
G|-5-----x-----------------------------------------|
D|-------------------------------------------------|
A|-------------------------------------------------|
E|-------------------------------------------------|


     ~~~~~~       ~~~~~~~~~
   S S +Q   E E E Q.   +E  Q    H.      E  Q   E E E
e|-6--------6-8---------------|-----------17\----------|
B|---8-(8)----8---6----(6)----|-----------17\----------|
G|--------------7-------------|-----------17\------3---|
D|----------------------------|----------------x-------|
A|----------------------------|----------------x-------|
E|----------------------------|----------------x-3-----|


   ~~~                        ~                             ~~
                      |-3-|      |3|                                            |-3-|
   H     Q  H.        S S S a Q  S E E.    +S   a    +E   S E. S S a    +S  +S  S S S
e|--3----------------|-----3------6---8b10==(8)r-6b8==(6)r-6---------------------------|
B|-------------------|---3---6s8----8------------------------8--6----------------------|
G|-(3)---------------|-5------------------------------------------7-5b7==(5)r(5)p3---3-|
D|-------------------|-------------------------------------------------------------5---|
A|-------------------|-----------------------------------------------------------------|
E|-------------------|-----------------------------------------------------------------|


              ~               ~
  |----3----|   |-3-|
  S    +S   S E S S S E S S E Q  E E Q
e|-----------3---------3------------------||
B|---------------------3------------------||
G|-5b7==(5)rp0-3-------3-------5--5-5-----||
D|---------------5p3-----------4--4-4-----||
A|-------------------5---3-4-5------5-----||
E|----------------------------------------||


[Verse 2]
                              ~~~
   Q.   Q  S S  Q  E E E E    H     Q  H.
e|-------------^3--3-------|--3----------------|
B|-------------^3--3-----3-|-(3)---------------|
G|-------------^3--3---3---|-------------------|
D|-------------------------|-------------------|
A|-------------------------|-------------------|
E|-----------3-------3-----|-------------------|


            ~~~~~~~                                ~~
   T. X S a Q  +Q.   S S S S    +E   a     +S  +S  E. S
e|------3------------6-3----------------------------------|
B|----3---6s8--(8)-------3--------------------------------|
G|-5-----------------------5b7==(5)r(5)b7==(5)r(5)p3--3h==|
D|--------------------------------------------------------|
A|--------------------------------------------------------|
E|--------------------------------------------------------|


     ~~~~~~
                                  |-3-|
   S S +Q   S S S S S     S S S E S S S Q.
e|-------------------------------------------|
B|-------------------------------------------|
G|-5----------------------------3------------|
D|---5-(5)--3---------------3h5---5p3--------|
A|------------5-4-3-------------------5------|
E|------------------6b6.5-3------------------|


                               ~~
   Q.   Q  S T T Q  E E. S E   Q.   Q.   H.
e|---------------3--3--------|-----------------|
B|---------------3--3-5--3---|-3---------------|
G|---------------3--3-5--3---|-3---------------|
D|---------------2---------5-|-----------------|
A|-------------3-------------|-----------------|
E|-----------3---------------|-----------------|


              ~~~~~~~    ~~~~~~
  |---3---|
  S     S S a Q  +Q.   S S +Q   E E.    +S
e|---------3------------6--------6-8b10==(8)r-|
B|-------3---6s8--(8)-----8-(8)---------------|
G|-5b5.5--------------------------------------|
D|--------------------------------------------|
A|--------------------------------------------|
E|--------------------------------------------|


                 ~                                  ~~
                                  |-3-| |----3----|
  a    +E   S E. S S a    +S  +S  S S S S    +S   S E. T T T T S Q    H.      Q.    Q   E
e|-6b8==(6)r-6-------------------------------------3-----------------|--------------19\-----|
B|-------------8--6-3------------------------------------------------|--------------19\-----|
G|--------------------5b7==(5)r(5)-3---3-5b7==(5)r---3---------------|--------------19\-----|
D|-----------------------------------5------------------5p3----------|----------------------|
A|----------------------------------------------------------5p3s2----|----------------------|
E|-------------------------------------------------------------------|-------------------3--|

  ~                             ~                             ~~~~~~~~~~
                    |---3---|      |3|
  H    Q  H.        S     S S a Q  S E E.    +S   a    +E   S E. Q  S S
e|-3---------------|---------3------6---8b10==(8)r-6b8==(6)r-6-----------|
B|-3---------------|-------3---6s8----8------------------------8--8--8-8-|
G|-3---------------|-5b5.5-----------------------------------------------|
D|-----------------|-----------------------------------------------------|
A|-----------------|-----------------------------------------------------|
E|-----------------|-----------------------------------------------------|
 
 
     ~~             ~
   S E. E E     E E Q  S S S S     +E   a     +E
e|-6------6b6.5------------6-8b10==(8)r-8b10==(8)r-||
B|---8--8-------8---6--8-8-------------------------||
G|----------------7--------------------------------||
D|-------------------------------------------------||
A|-------------------------------------------------||
E|-------------------------------------------------||


[Solo]
                ~~~~~~~~                                                               ~~~~~~~~
   a     +E   S E. Q  S S a    +E.  S  E  Q.     Q  S S S a     +S  +Q    a     +E   S E. Q  S S
e|-8b10==(8)r-6-----------6b7==(6)r-x-13\------|--------6-8b10==(8)-(8)r--8b10==(8)r-6-----------|
B|--------------8--8--8-8-----------x-13\------|----8-8--------------------------------8--8--8-8-|
G|---------------------------------------------|-------------------------------------------------|
D|---------------------------------------------|-------------------------------------------------|
A|---------------------------------------------|-------------------------------------------------|
E|---------------------------------------------|-------------------------------------------------|
 
 
                       ~~~~~~~~
   a     +E   S a     +E. +Q    E E a     +Q    Q  +S  S
e|-8b10==(8)r---8b10==(8)-(8)r------8b10==(8)r--8--(8)-6-|
B|-------------------------------------------------------|
G|-------------------------------------------------------|
D|-------------------------------------------------------|
A|-------------------------------------------------------|
E|-------------------------------------------------------|


   ~~~~~
   Q  S S Q      E    +E   E    +E   E    +E   a     +E
e|--------6b6.5--7b8==(7)r-8b9==(8)r-8b9==(8)r-8b10==(8)r-|
B|-8--8-8-------------------------------------------------|
G|--------------------------------------------------------|
D|--------------------------------------------------------|
A|--------------------------------------------------------|
E|--------------------------------------------------------|


      ~~~~~~~
  |3|             |--3--| |-3-| |3|       |---3----|
  E S Q  +Q   S S E     S S S S S E a    +S  +T  T S S S    +S   S
e|-8-6-------------6b6.5-------3----------------------------------3-|
B|-----8--(8)--5-8-------8p6s3---6-3------------------------------3-|
G|-----------------------------------5b7==(5)r(5)p3---3-5b7==(5)r---|
D|--------------------------------------------------5---------------|
A|------------------------------------------------------------------|
E|------------------------------------------------------------------|


  ~~~~~~
     |3-|           |-3-|           |--5:6--|
  E +E  S S    +S   S S S E.   +S   S S S S S S S S S S S
e|---------------------3-------------3---3---3---3---------|
B|-------------------3---3-6b8==(6)r---3---3---3---3-6p3---|
G|-3-(3)---5b6==(5)r-------------------------------------6s|
D|-------5-------------------------------------------------|
A|---------------------------------------------------------|
E|---------------------------------------------------------|


                    ~~~~~~                             ~~~~~
  |---3---| |-3-| |3|                                       |--3--|
  S S     S S S S E S +E  T T S E  T  S  T  S  a      +E.   S  S  S E a    +E
e|-----------------3------------------15----15--------------15-------------------|
B|---------------3-----------------------15----18b20==(18)r----18----------------|
G|-5-3b3.5---3-5-----3-(3)-------5s16-----------------------------17s5-3b4==(3)r-|
D|---------5---------------5p3---------------------------------------------------|
A|-----------------------------5-------------------------------------------------|
E|-------------------------------------------------------------------------------|


                                     ~~~~~~~~~~~~
   |-3-|             |3|
   S S S E S    +S   E S S S S S +S  S +Q   Q  S S
e|-------------------3-----3-6s8-(8)---------------|
B|---------------------3-6-----------8-(8)--8--8-8-|
G|---------5b7==(5)r-------------------------------|
D|-5p3h5-------------------------------------------|
A|-------------------------------------------------|
E|-------3-----------------------------------------|
 



   E    +E   a    +E     +E   E    +E   E    +E   E      +E   E    +E
e|-6b8==(6)r-6b7==(6)b8==(6)r-7b8==(7)r-7b8==(7)r-7b8.5==(7)r-8b9==(8)r-|
B|----------------------------------------------------------------------|
G|----------------------------------------------------------------------|
D|----------------------------------------------------------------------|
A|----------------------------------------------------------------------|
E|----------------------------------------------------------------------|
 
 
                                                      ~~~~~~~~~~
   E    +E   E     +E   a     +Q    a     +E.  a     +E.  Q.
e|-8b9==(8)r-8b10==(8)r-8b10==(8)r--8b10==(8)r-8b10==(8)r----------|
B|--------------------------------------------------------8pb10----|
G|-----------------------------------------------------------------|
D|-----------------------------------------------------------------|
A|-----------------------------------------------------------------|
E|-----------------------------------------------------------------|


               ~~~~~       ~~~~~~~~~~~~      ~~~~~~              ~
   a    +E   S E. Q  S S S S +Q   Q  S S   S S +E. S E     E a E Q  S S S S     +E  +S.  T
e|-8b9==(8)r-6-----------6---------------|-6---------6b6.5--------------6-9b10==(9)-(9)r-9b10=|
B|-8b9==(8)r---8--8--8-8---8-(8)--8--8-8-|---8-(8)-8-------8-8---6--8-8-6-9b10==(9)-(9)r-9b10=|
G|---------------------------------------|---------------------7------------------------------|
D|---------------------------------------|----------------------------------------------------|
A|---------------------------------------|----------------------------------------------------|
E|---------------------------------------|----------------------------------------------------|


   +Q   +E  +S. T     +E  +E  E     +E   E    +E   E     +E
e|-(9)--(9)r(9)-8b10==(8)r(8)-9b10==(9)r-8b9==(8)r-9b10==(9)r---|
B|-(9)--(9)r(9)-8b10==(8)r(8)-9b10==(9)r-8b9==(8)r-9b10==(9)r---|
G|--------------------------------------------------------------|
D|--------------------------------------------------------------|
A|--------------------------------------------------------------|
E|--------------------------------------------------------------|


                                                                     ~~~~~~
   a     +E  +E  a    +E  +E  a    +E  +E  S    S     E.    +S   T T S +E  S S
e|-9b10==(9)r(9)-8b9==(8)r(8)-7b8==(7)r(7)-7pb8-9pb10-7b10==(7)r---6-----------|
B|-9b10==(9)r(9)-8b9==(8)r(8)-7b8==(7)r(7)-7pb8-9pb10-7b10==(7)r-----8-(8)-8-8-|
G|-----------------------------------------------------------------------------|
D|-----------------------------------------------------------------------------|
A|-----------------------------------------------------------------------------|
E|-----------------------------------------------------------------------------|


         ~~~~~~~~
                                                                                       |-3-|
   S    +S  +E.  T T a    +S   S S S     S S T T T T S S   +E   a    +S   S S T   +T   S S S
e|-6b7==(6)-(6)r-3-------------3-3-------3-5-3h4p3---3-6b8=(6)r(6)b7=(6)r-3--------------3----|
B|-----------------3-----------3---6b6.5-3---------6-3----------------------3----------3---6--|
G|-------------------5b7==(5)r------------------------------------------------5b7=(5)r--------|
D|--------------------------------------------------------------------------------------------|
A|--------------------------------------------------------------------------------------------|
E|--------------------------------------------------------------------------------------------|


                                                            ~~   ~
  |---3---|   |-3--| |3|             |-3-|       |--4:3---|
  E a    +S  +S  S S E S    +E   S S S S S a    +S  +S  S S E. a Q  S S
e|-3------------------------------3-3-3---3------------------------------|
B|-3------------------------------3-3-3-6-3-----------------------8--8-8-|
G|---5b7==(5)r(5)p3---3h5b7==(5)r-----------5b6==(5)r(5)p3---3--x--------|
D|------------------5--------------------------------------5-------------|
A|-----------------------------------------------------------------------|
E|-----------------------------------------------------------------------|


                                        ~~~~~~~~
   S S     +E   a     +E   a     +E   S E. Q  S S E.   +S   S S
e|-6-8b10==(8)r-8b10==(8)r-8b10==(8)r-6-----------6b7==(6)r------|
B|--------------------------------------8--8--8-8-----------8-8--|
G|---------------------------------------------------------------|
D|---------------------------------------------------------------|
A|---------------------------------------------------------------|
E|---------------------------------------------------------------|


                   |-3--| |-3-| |-3-| |-3-| |-3-|  |--3----|        
  T T    +T  T     S  S S S S S S S S S S S S S S  S    S  S  a    
e|-6-8b10=(8)-8-----8--8-8-8-8-8-8-8-8-8-8-8-8-8-8r-8pb9=8--8r-| 
B|------------8pb10=8r------------------------------8pb9=8r----| 
G|-------------------------------------------------------------| 
D|-------------------------------------------------------------| 
A|-------------------------------------------------------------| 
E|-------------------------------------------------------------| 

   |--------3--------|
  +E   a   +E   a   +E   a   +S  +S  a   +S  +S  a   +S  +S  
e|-8b9=(8)r-8b9=(8)r-8b9=(8)r-7b8=(7)r(7)-7b8=(7)r(7)-7b8=(7)r(7)-|
B|--------------------------7b8=(7)r(7)---------------------------|
G|----------------------------------------------------------------| 
D|----------------------------------------------------------------|
A|----------------------------------------------------------------|
E|----------------------------------------------------------------|

       ~~~~
   S S Q  Q  S S S T     +T   E    +E    E  E. S
e|-8-6-----------6-8b10==(8)r-6b7==(6)r-19\-------|
B|-----8--8--8-8-6-8----------6b7==(6)r-19\----x\-|
G|------------------------------------------------|
D|------------------------------------------------|
A|------------------------------------------------|
E|------------------------------------------------|


                  |-------3-------|       |--3--| |----3----|          |3|     |-3-|
  S     S S S S S S S S S S S S S S a    +S   S S S S a    +S  +T  S T E S E a S.T S
e|---------3---3-5-3h4p3---3-6-3-----------------3---3----------------------6---------|
B|-------3-3-6-3---------6-3-----6-3-----------3---6-3--------------------------------|
G|-5b5.5-----------------------------5b7==(5)r---------5b7==(5)r(5)p3-3h5s7---7p5p3---|
D|----------------------------------------------------------------------------------5-|
A|------------------------------------------------------------------------------------|
E|------------------------------------------------------------------------------------|

                                                        ~
      |-3-| |---3---|           |-3-|       |--3--|
  S S S.T S S S    +S   S S S S S S S S E S E    +S   S E S E
e|-----------------------------------------------------3-------|
B|-6-----------------------6-6-------6-6s5-3-----------3-------|
G|---6s5p3---3-5b7==(5)rs6---6s5-3-----6s5-3-5b7==(5)r---3-----|
D|---------5-----------------------5-----------------------5---|
A|-----------------------------------------------------------5-|
E|-------------------------------------------------------------|


                  ~~
      |-3-|                              |-3-|
  S S S S S +S  S Q.   E    +E   S S S S S S S S S
e|---------------------------------------------------|
B|---------------------------------------------------|
G|---------3-(3)-5-5----3b4==(3)r--------------------|
D|-----5--------------------------5-3----------------|
A|-5s7---7----------------------------5-4-3h4p3------|
E|----------------------------------------------6-3--|


  ~                              ~
           |-3-|           |-3-|            |-3-|
  Q  E S S S S S a    +E   S S S Q  S S S S S S S
e|----------3---3----------------------------------|
B|--------3---6-3----------------------------------|
G|-5----5---------5b7==(5)r-5p3---3----------------|
D|------------------------------5----5-3-----------|
A|---------------------------------------5-4-3h4p3-|
E|----3--------------------------------------------|


           ~            ~~~~~~~~~
   S S S S E S S S S E  Q.   +Q   E
e|----------------------------------||
B|----------------------------------||
G|---------3------------5----(5)----||
D|-----3-5---5-3--------4----(4)----||
A|---------------3-4-5-(5)---(5)----||
E|-6-3------------------------------||


[Verse 3]
                               ~~
   H.      E.   +S   E E E E   Q.   E Q  H.
e|-------------------3-------|-3----x------------|
B|---------------------------|-3----x------------|
G|---------5b7==(5)r---------|-3----x------------|
D|---------------------------|-------------------|
A|---------------------------|-------------------|
E|-----------------------3-3-|-------------------|


           ~~~~~                                   ~~
   |-3-|
   S S S a Q  Q  S S S a     +S  +Q    a    +E   S E.
e|-----3-------------6-8b10==(8)-(8)r--8b9==(8)r-6------|
B|---3---6s8--8--8-8-------------------------------8----|
G|-5----------------------------------------------------|
D|------------------------------------------------------|
A|------------------------------------------------------|
E|------------------------------------------------------|


  ~~~~~
         |-3-|       |--3---|     |----3----|
  Q  S S S S S a    +S  +S  S S S S    +S   S E. T T e Q
e|--------6----------------------------------3-------------|
B|-8--8-8---8----------------------------------------------|
G|------------7-5b7==(5)r(5)p3---3-5b7==(5)r---3-----------|
D|-----------------------------5------------------5p3------|
A|----------------------------------------------------5----|
E|---------------------------------------------------------|


                                       ~~~
                      |-3--|  |-3-|
  Q.   Q  S S E E E E S S  S  S S S    Q.   Q.   H.
e|-----------0---8---6------5s=4-----|--3---------------|
B|-----------0-----------------------|------------------|
G|-----------0-9---7---3s5-(5)s4-4s3-|-(3)--------------|
D|-----------------------------------|------------------|
A|-----------------------------------|------------------|
E|-----------------------------------|------------------|


  |-3-|                                  |3-|                     |-----3------|
  S S S a    +Q   +Q.    a    +E   E    +E  S S    +S   S S a    +S   a    +S  S
e|-----3---------------------------------------------------3----------------------|
B|---3---6b8==(6)--(6)r---6b8==(6)r----------------------3-3-6b8==(6)r------------|
G|-5--------------------------------5pb6r(5)p3-5b7==(5)r---------------5pb6r(5)-3-|
D|--------------------------------------------------------------------------------|
A|--------------------------------------------------------------------------------|
E|--------------------------------------------------------------------------------|


                                                   |-3-|
   a    +E   S S S     S S S    +S   S S a    +S   S S S T T T T S T T T T T T Q
e|-------------3-------3-5-----------3-------------3-3---3-------------------------|
B|-----------3-3-6b6.5-3---6b8==(6)r---3-----------3---6-3-------------------------|
G|-5b7==(5)r-----------------------------5b7==(5)r---------5p3---3-----------------|
D|-------------------------------------------------------------5---5p3-------------|
A|---------------------------------------------------------------------5p3---------|
E|-------------------------------------------------------------------------6p3-----|


   H.      Q.   Q  E   E Q  Q.   H.
e|--------------5--4-|-3-----------------|
B|--------------5--4-|-3-----------------|
G|--------------5--4-|-3-----------------|
D|--------------4--3-|-2-----------------|
A|-------------------|-------------------|
E|-------------------|-------------------|


   Q  E     Q      E     E E  E       Q        E
e|----6b6.5-6b6.5--6b6.5-3---10b10.5-10b10.5--10b10.5--:
B|----5b5.5-5b5.5--5b5.5-0---11b11.5-11b11.5--10b10.5--:
G|----6b6.5-6b6.5--6b6.5-0-----------------------------:
D|-----------------------0-----------------------------:
A|-----------------------------------------------------:
E|-----------------------------------------------------:


  H.=H
                                     |--3--|  |--3--|
  E     E E E. +E    S  +Q.    a  E  S  S  S  S  S  S
e|-3----------------^10-(10)---10s12-10----------------:
B|-3----------------^10-(10)------------12-10-------10-:
G|-3b3.5------------^10-(10)------------------12-12p10-:
D|---------5--------^-9--(9)---------------------------:
A|-----------3--(3)S^10-(10)---------------------------:
E|-----------------------------------------------------:

                                 >
                                 ~~
                     |-3-| |3|
    S  S S E    +S   S S S E S E H.
e|-10----------------------------3-----*|
B|-------------------------------3-----*|
G|----10s5p3b4==(3)r-------------2-----*|
D|-------------------5p3---------3-----*|
A|-----------------------5-4p3s2-2-----*|
E|-------------------------------------*|
Suggest correction
comments
print report bad tab
5 comments total. Showing first comments.
-2 reply
dan_the_pie 161 Aug 22, 2005 12:00 AM

i gave it one star just to be funny!! hahahaha

0 reply
locoloco 10 Aug 26, 2006 08:33 PM

^^Your a dick. I gave it 5, but it still says 3 stars. Evil_Empire24-7, sorry this dickhead had to give you one star because he thought it was funny (but it wasn't really).

0 reply
Colt73 10 Aug 29, 2006 12:16 AM

locoloco is right this tab is frickin great. great job Evil_Empire24-7. dan_the_pie is an ass and shat all over your tab. i gave it 5 stars ad now it's at 4 stars.

and i was wondering how to do this part correctly, but never got around to learn it , so thanks
|-3--| |-3-|
Q. Q S S E E E E S S S S S S Q. Q. H.
|-----------0---8---6------5s=4-----|--3---------------|
|-----------0-----------------------|------------------|
|-----------0-9---7---3s5-(5)s4-4s3-|-(3)--------------|
|-----------------------------------|------------------|
|-----------------------------------|------------------|
|-----------------------------------|------------------|


guest
You may want to rate the tab now too:
select rating
Wanna post a correction for this tab? Suggest correction