Oops, an error
Loading. Please wait.

Tightrope Bass Tab

version 1
version 1

Whole song

Interactive

11,039 views 27 this week
2 commentsread comments
1 2 3 4 5
excellent!
x 2
add to favorites
launch autoscroll
font size
0
reset
guitar tuner
Tab Pro tools
  • play this tab
  • loop segment
  • change instrument
  • show fretboard
  • metronome
Autoscroll
slow
fast
+/-
esc
set tempo
stop
Contributor
Difficulty
novice
Stevie Ray Vaughan - Tightrope

Tuning: one-half step down
low to high: Eb,Ab,Db,Gb

Intro
Gb---------------------------|
Db---------------------------|
Ab-7--5~--------0------------|
Eb--------7~~\\-----3~--0~---|

Gb--------------------------|
Db--------------------------|
Ab-7--5~-------0------------|
Eb--------7~\\-----3~--0~---|

Verses  0:10, 0:38, 2:26  3X's
Gb------------------------|
Db------------------------|
Ab-----------2-0-2-----1--|
Eb-7--7----0---------0----|

Gb------------------------|
Db------------------------|
Ab-2--2------2-0-------1--|
Eb---------0-----2--0-----|

Gb--------------------------------------------------------|
Db--------------------------------------------------------|
Ab-2--2------2-0-2----1--2--2------2-0----0-2-0-----------|
Eb---------0--------0------------0-----2---------4---X-0--|

Gb---------------------------|
Db---------------------------|
Ab-7--5~--------0------------|
Eb--------7~~\\-----3~--0~---|

Gb--------------------------|
Db--------------------------|
Ab-7--5~-------0------------|
Eb--------7~\\-----3~--0~---|

   2X's
Gb------------------|
Db------------------|
Ab-7--5~-------5-6--|
Eb--------7~-7------|

Chorus  1:00, 2:49
Gb----------------------------------------------|
Db----------------------------------7-7----7-9--|
Ab-7-7---------------7-5-5------9-9-----9-------|
Eb------0-5-0-7-5-7--------7-7------------------|

Gb-----------------------------------------------------|
Db-----------------------------------------7-7----7-9--|
Ab-7--7--------------------------------9-9-----9-------|
Eb---------0-4p0-5-5-4--5--6-6-7--7--------------------|

Gb--------------------------------------------------------|
Db-----------------------------------------7-7----7-9\\---|
Ab-7--7-------------------------------\\9-9-----9---------|
Eb--------0-4-0-5-5-4--5--6-6-7--7------------------------|

Gb------------------------------|
Db-------------------7---7~--9--|
Ab------7-------/9-----9--------|
Eb-5---------7------------------|

1st Guitar Solo  1:20 3X's
Gb------------------------|
Db------------------------|
Ab-2--2------2-0-2-----1--|
Eb---------0---------0----|

Gb------------------------|
Db------------------------|
Ab-2--2------2-0-------1--|
Eb---------0-----2--0-----|

Gb-------------------------------------------------|
Db----------------------------------------------0--|
Ab-7--7----0-7-5-7----0-6--7--7----0-7-5-----------|
Eb---------------------------------------7--0------|

Gb-------------------------------------------------|
Db-------------------------------------------------|
Ab-2--2------2-0-2-----1--2--2------2-0----0--2-0--|
Eb---------0---------0------------0-----2----------|

Gb-------------------------------------------------------|
Db--------------4--4----------2--2------------------2-0--|
Ab--------X-4-4--------0-4-0---------0-2-0-2--2----------|
Eb-2--2------------------------------------------0-------|

Gb--------------------------------------------------------|
Db--------------------------------------------------------|
Ab-2--2--2-------2-0----0--1-1--2--2~------2-0----0--1-1--|
Eb---------0-2-0-----2----------------2-2------2----------|

1:49
Gb--------------------------------------------------------------------------|
Db------------7---7-9-----------------7-7----7-9----------------7----7-9----|
Ab-2--2---7/9---9---------------X-9-9-----9-------0---------9-9---9------9--|
Eb--------------------0--7--7------------------------7--7-------------------|

Gb---------------------------------------------------------------------------|
Db---------------------------------------------------------------------------|
Ab-------------5--5-5-6-6-6-6--7--7-------------------7--7-------------------|
Eb-7-7p0-9-9-9----------------------0-4-0-5--4--5-7-7-------0-4-0-5-0-4--5-6-|

Gb------------------------------------------------------|
Db-------------7-7----7-9----------------7-7----7--9-7--|
Ab---------9-9-----9-----------------9-9-----9----------|
Eb-7--7--------------------0--7--7----------------------|

Gb-----------------------------------------------------|
Db-----------------------------------------------------|
Ab-9--9----------------9-----7--7----------------------|
Eb--------0-5-0-9-0-9-----0---------0-4-0-5-0-4--5--7--|

2:14
Gb--------------------------------------------|
Db--------------------------------------------|
Ab-7--5~----------0-------------7--5~---------|
Eb-------7~----0-----3~-3-0~----------7~~\\---|

Gb-------------|
Db-------------|
Ab-0-----------|
Eb----3~--0~~--|

3:04
Gb------------|
Db------------|
Ab-7--5~------|
Eb--------7~--|

Gb------------------|
Db------------------|
Ab-7--5~-------5-6--|
Eb--------7~-7------|

Outro Chorus  3:11
Gb------------------------------------------------------|
Db------------------------------------------------------|
Ab-7--7------------------------------------5-5-5-6-6-6--|
Eb--------0-4-0-5--4--5--6-6-7--7--9-9-9-9--------------|

Gb-----------------------------6-6-6-7-7-7-8-8-8-9-7-9------|
Db-----6-6-6-6-7-7-7-8-8-8-9-9-------------------------7-7--|
Ab-7-7------------------------------------------------------|
Eb----------------------------------------------------------|

Gb---------------------7-7----7-9--|
Db-----------------9-9-----9-------|
Ab-0-5-4-5-6-6-7-7-----------------|
Eb---------------------------------|

Gb-------------9-7--------------------------|
Db------6-0-9------9--9-9-------------------|
Ab-7-7--------------------6-6-7--7---8-9-9--|
Eb---------------------------------0--------|

2nd Guitar Solo  3:30
Gb-------------------------------------------------|
Db-------------------------------------------------|
Ab-7-7---------------------------4-4-5-5--5-6-6-6--|
Eb------0-5-0-5-0-4--5--6-6--7-7-------------------|

Gb---------------------------------------------------7-7----7-9---X--|
Db------------------------------------------------/9-----9-----------|
Ab-7--7-----------------------------5--5-6-7--7----------------------|
Eb--------X-4-0-5-0-4-5-6--7-7---9~----------------------------------|

Gb----------------------------------------------------|
Db-9--9--------7-7-----7-9----------------------------|
Ab--------/9-9-----9--------7--7----------------------|
Eb---------------------------------0-4-0-5-X-4--5--6--|

Gb----------------------------------------------------|
Db----------------------------------------------------|
Ab--------------5-5---6-6-6--7--7----------------7-5--|
Eb-7--7--9--9-9---------------------0-4-0-7-0-7-------|

Gb---------------------------------------------------------------------------|
Db------------------------------6-6--6-7-0-6--7--8-8-9-9-9-0-7--9-6~0-7--8-9-|
Ab-------------5--5-5-6-6--7--7----------------------------------------------|
Eb7--7--9--9-9---------------------------------------------------------------|

Gb------------7-7----7--9-7----------------------------|
Db--------9-9-----9----------9--9---X-----------9-7----|
Ab-7--7-------------------------------6-6-9--9------9--|
Eb-----------------------------------------------------|

Gb-----------------------------------------7----------|
Db----------------------------------------------------|
Ab-7--7----------------------------------5----5-6--6--|
Eb--------0-4-0-5-0-4--5-6--7--7--9-9--9--------------|

Gb-------------------------------6--6-6-7-7--7-8-8--8--|
Db-------6--6-6-7-7--8--8--9--9------------------------|
Ab-7--7------------------------------------------------|
Eb-----------------------------------------------------|

Gb-9-7-------------------------------------------------|
Db-----9-----------------------------------------------|
Ab--------7----7-X-------------------------------------|
Eb-----------9-----4--5--7-7-7--7--7--7-7-7--7-7-7--7--|

Gb--------------------------|
Db--------------------------|
Ab-7--7---------7-----------|
Eb--------0-7-0---4--5-6-6--|

Gb-------------------------------------------------------------------|
Db-------------------------------------------------------------------|
Ab--------------------------7--7-------------------------------------|
Eb-7-0-7~--7-7-7--7-7~--7-7--------0-4-0-5-0-4--5--6-6-7--7--9--9-9--|

Gb---------------------------------------------------------------|
Db----------------------6---6-6-7-7--8--8-8-9--9-7-7--7--6-6--5--|
Ab-5-5--5-6--6-6--7--7-------------------------------------------|
Eb---------------------------------------------------------------|

Gb---------------------------------------------------|
Db---------------------------------------------------|
Ab-7--7----------------------------------------------|
Eb-------4--4-5-0-4--5--6--7--7--7--7-7-7-7-7--7--7--|
comments
We did not receive enough feedback on this tab! Please rate:
print report bad tab
1 2 3 4 5
2 comments total.
0 reply
deepestpurple wrote on August 22 2007, 06:57 am

Is it one AND a half step down or just half?

0 reply
Carls Jr Nation wrote on August 30 2010, 05:59 pm

Half.

It isn't death metal lol.

I want to post or [tab]
guest
You may want to rate the tab now too:
select rating
Please do not post tabs as comments. Select "correction" instead!