Oops, an error
Loading. Please wait.

Tightrope Tab

version 3
version 3

Whole song

Interactive

66,818 views 135 this week
6 commentsread comments
1 2 3 4 5
excellent!
x 11
add to favorites
launch autoscroll
font size
0
reset
how to read this tab
guitar tuner
Autoscroll
slow
fast
+/-
esc
set tempo
stop
Help us to improve Ultimate-Guitar.com Take our survey!
×
Author
Transcribed by www.mikesguitarsite.co.uk
Gtr I (Eb Ab Db Gb Bb Eb) - 'Stevie Ray Vaughan - Rhythm / Lead w/dist'
Gtr II (Eb Ab Db Gb Bb Eb) - 'Stevie Ray Vaughan - Rhythm w/dist'
Tempo - 98 4/4

[Intro]
  Gtrs I, II
                                 ~~         ~~~~~~
e|------------------------------|------------------0---------------|
B|------------------------------|-2----------------0---------------|
G|---------------------8-8-8\-0-|-2------------------2b4r(2)p0-----|
D|---6-9-------4-------7-7-7\---|-2----------2-(2)-------------2p0-|
A|-7-----5-(5)---------6-6-6\---|----------------------------------|
E|---------------7-(7)-7-7-7\---|----3-(3)-x-----------------------|

                                  ~~       ~~~~~~
e|------------------------------|----------------0---------------||
B|------------------------------|-2--------------0---------------||
G|---------------------x-8-8-8\-|-2----------------2b4r(2)p0-----||
D|---6-9-------4-------x-7-7-7\-|-2--------2-(2)-------------2p0-||
A|-7-----5-(5)---------x-6-6-6\-|--------------------------------||
E|---------------7-(7)---7-7-7\-|----3-(3)-----------------------||

[Verse]
     PM|                         PM|
e|----------------------------|-----------------------------------|
B|o------7-----7-----7-----7--|------7---7-----7-----7-----7---7--|
G|-------6-----6-----6-----6--|------6---6-----6-----6-----6---6--|
D|-------7-----7-----7-----7--|------7---7-----7-----7-----7---7--|
A|o-----(6)---(6)---(6)---(6)-|-----(6)-(6)---(6)---(6)---(6)-(6)-|
E|--7-7-----------------------|-7-7-------------------------------|

   PM|                                   PM|
e|-------------------------------------|-----------------------------|
B|------7---7-----7--x-x--7-----7---7--|------7---7--x--7--x-7----7--|
G|------6---6-----6--x-x--6-----6---6--|------6---6--x--6--x-6----6--|
D|------7---7-----7--x-x--7-----7---7--|------7---7--x--7--x-7----7--|
A|-----(6)-(6)---(6)-x-x-(6)---(6)-(6)-|-----(6)-(6)-x-(6)-6-6---(6)-|
E|-7-7---------------------------------|-7-7-------------------------|

   PM|
e|-----------------------------------|
B|------7---7-----7-----7-----7---7--|
G|------6---6-----6-----6-----6---6--|
D|------7---7-----7-----7-----7---7--|
A|-----(6)-(6)---(6)---(6)---(6)-(6)-|
E|-7-7-------------------------------|

   PM|
e|---------------------------------|-4---------7--------|
B|------7---7-----7-----7-----7----|-4---------7--------|
G|------6---6--x--6-----6-----6----|-4---------7----x-x-|
D|------7---7--x--7-----7-----7----|-6--------(6)---x-x-|
A|-----(6)-(6)-x-(6)---(6)---(6)---|-6---------7----x-x-|
E|-7-7-----------------------------|-4----0-0-----------|

                                   1.
                                    ~~
e|--------------------------------|------------------0----------------|
B|--------------------------------|-2----------------0----------------|
G|---------------------x-8-8-8\-x-|-2------------------2pb4r(2)p0-----|
D|---6-9-------4-------x-7-7-7\-x-|-2----------2-(2)--------------2p0-|
A|-7-----5-(5)---------x-6-6-6\---|-----------------------------------|
E|---------------7-(7)-----7-7\---|----3-(3)-0------------------------|

                                  ~~       ~~~~~~
e|------------------------------|----------------0-----------------||
B|------------------------------|-2--------------0----------------o||
G|---------------------x-8-8-8\-|-2----------------2pb4r(2)p0------||
D|---6-9-------4-------x-7-7-7\-|-2--------2-(2)--------------2p0--||
A|-7-----5-(5)-----------6-6-6\-|---------------------------------o||
E|---------------7-(7)-----7-7\-|----3-(3)-------------------------||

   2.,D.S.
e|-------------------------------||
B|-------------------------------||
G|-------------------------------||
D|---6-9-------4-----------------||
A|-7-----5-(5)-----------5-5-6-6-||
E|---------------7-(7)-7---------||

[Chorus]
e|------7--7----7-----7-----7--|------------------------------|
B|------7--7-x--7-----7-----7--|------7--7-x--7-----7-----7---|
G|------7--7-x--7-----7-----7--|------6--6-x--6-----6-----6---|
D|-----(6)-6---(6)---(6)---(6)-|------7--7-x--7-----7-----7---|
A|-7-7-------------------------|-----(6)-6---(6)---(6)---(6)--|
E|-----------------------------|-7-7--------------------------|

e|------7--7----7-----7-----7--|
B|------7--7-x--7-----7-----7--|
G|------7--7-x--7-----7-----7--|
D|-----(6)-6---(6)---(6)---(6)-| x2
A|-7-7-------------------------|
E|-----------------------------|

           To Coda
   Gtr I
                                   ~~~~~~
e|-5-------7------|------------------------||
B|-5-------7------|--7---------------------||
G|-6-------7------|--6---------------------||
D|-7------(6)-----|--7---------7---7-(7)-9-||
A|-7-------7------|-(6)---/9-----9---------||
E|-5--------------|------------------------||

 | Gtr II
 |                                 ~~~~~~
e|-5-------7------|------------------------||
B|-5-------7------|--7---------2---2-(2)-4-||
G|-6-------7------|--6---------2---2-(2)-4-||
D|-7------(6)-----|--7-----------4---------||
A|-7-------7------|-(6)---/9---------------||
E|-5--------------|------------------------||

[Guitar Solo]
e|--------------------------------------7-------------|
B|-----------------------------------7----------------|
G|-9b11r(9)p7b7.5-------------9b11==(9)---9r(9)p7-----|
D|------------------------------------------------9---|
A|--------------------------------------------------7-|
E|----------------------------------------------------|
|
e|----------------------------------------------------|
B|------------------7-7---7-------------7---------7-7-|
G|------------------6-6---6-------------6---------6-6-|
D|------------------7-7---7-------------7---------7-7-|
A|------------------6-6---6-------------6---------6-6-|
E|-7--------7-----------------------------------------|

e|---------------------------------------------|
B|---------------------------------------------|
G|---7b7.5-------------------------------------|
D|-9--------9p=7-------------------------------|
A|-------------------9p7-----------------------|
E|---------------------------------------------|

 | PM|
e|---------------------------------------------|
B|----------7-----7---------7-----7-----7---7--|
G|----------6-----6---------6-----6-----6---6--|
D|----------7-----7---------7-----7-----7---7--|
A|---------(6)---(6)-------(6)---(6)---(6)-(6)-|
E|-7-7-----------------------------------------|

e|-------------------------------7----------7--7-------|
B|-----10b12==(10)-------(10)r-----10-------7--7-------|
G|---x---------------------------------9b11-------9b11-|
D|-----------------------------------------------------|
A|-----------------------------------------------------|
E|-----------------------------------------------------|

  PM---------|
-----------------------------------------------------|
------------------7------7-----x--7----------7-------|
------------------6------6-----x--6----------6-------|
------------------7------7-----x--7----------7-------|
-----------------(6)----(6)----x-(6)--------(6)------|
-7------------7--------------------------------------|

e|------------------------------------7---------|
B|----------------------------------7----7--10s=|
G|-7----x----------------------9b11-------------|
D|---------9\----------x------------------------|
A|---------------------x------------------------|
E|------------------------0---------------------|

   PM-|
e|----------------------------------------------|
B|---------7---7-------7-------7---------7---7--|
G|---------6---6-------6-------6---------6---6--|
D|---------7---7-------7-------7---------7---7--|
A|--------(6)-(6)-----(6)-----(6)-------(6)-(6)-|
E|-7--7-----------------------------------------|

          ~~
e|----10--------------10--12p10b10.5-----------|
B|-12----12-12--12-12--------------------x-----|
G|---------------------------------------x-----|
D|---------------------------------------------|
A|---------------------------------------------|
E|---------------------------------------------|

e|-----------7---------7--------------7----9-7-|
B|-----------7---------7--------------7----9-7-|
G|-----------7---------7--------------7----9-7-|
D|----------(6)-------(6)------------(6)-------|
A|--7-----7------------------------------------|
E|---------------------------------------------|

                                                               ~~~
e|-----------10-12b14==(12)r-12b14==(12)r-----12b14==(12)r-10---------|
B|-----12-12----------------------------------12b14==(12)r----12------|
G|--------------------------------------------------------------------|
D|--------------------------------------------------------------------|
A|--------------------------------------------------------------------|
E|--------------------------------------------------------------------|

e|-(7)--------7-----------------------7-----7------------------7---7--|
B|-(7)--------7-----------------------7-----7------------------7---7--|
G|-(7)--------7-----------------------7-----7------------------7---7--|
D|------------------------------------------------------------(6)-(6)-|
A|------7-------------------------------------------------------------|
E|--------------------------------------------------------------------|

e|----10-----------7---10b12==(10)r---10b11==(10)r-----7-----------------|
B|-12----12p10s=7----7-----------------------------------10------------7-|
G|----------------------------------------------------------9b11==(9)r---|
D|-----------------------------------------------------------------------|
A|-----------------------------------------------------------------------|
E|-----------------------------------------------------------------------|

    PM|
e|-----------------------------------------------------------------------|
B|--------------7---------------7--------------x----7--------------7-----|
G|--------------6---------------6--------------x----6--------------6-----|
D|--------------7---------------7--------------x----7--------------7-----|
A|-------------(6)-------------(6)-----------------(6)------------(6)----|
E|--7--7-----------------------------------------------------------------|

                             ~~~~~~
                                     |---3---|
e|-7-------------------------------------------------------------|
B|---10------------------------------------------------------7---|
G|------9b11==(9)r--7h==9----7-(7)---------------9b11==(9)r------|
D|-------------------------9---------9p7-------------------------|
A|-------------------------------------------9-x-----------------|
E|---------------------------------------------------------------|

  PM---|
e|---------------------------------------------------------------|
B|------------------7---7-------7---------7-------------7----7---|
G|------------------6---6-------6---------6-------------6----6---|
D|------------------7---7-------7---------7-------------7----7---|
A|-----------------(6)-(6)-----(6)-------(6)-----------(6)--(6)--|
E|-7----7--------------------------------------------------------|

                                          ~
e|--7-----------------------------------------------|
B|-----7-10-7------------10---------------7---------|
G|------------9b11==(9)r----9-7--9--7-----7---------|
D|------------------------------------9-7----9p=7---|
A|------------------------------------------------9-|
E|--------------------------------------------------|

e|--9----------------9-----------9-----------8------|
B|--9----------------9-----------9----x-9----8------|
G|--9----------------9-----------9----x-9----8------|
D|-(8)--------------(8)---------(8)-----8---(7)-----|
A|--9----------------9-----------9------9----8------|
E|--------------------------------------------------|

e|----------------10-------------10------------10------------10--------------10--|
B|-------------------------------------------------------------------------------|
G|-----9b11==(9)r-----9b11==(9)r----9b11==(9)r----9b11==(9)r----9-9b11==(9)r-----|
D|--0----------------------------------------------------------------------------|
A|-------------------------------------------------------------------------------|
E|-------------------------------------------------------------------------------|

e|--7-----------------7--------------------7-------------7---------------7-------|
B|--7-----------------7--------------------7-------------7---------------7-------|
G|--7-----------------7--------------------7-------------7---------------7-------|
D|-(6)---------------(6)------------------(6)-----------(6)-------------(6)------|
A|--7-----------------7--------------------7-------------7---------------7-------|
E|-------------------------------------------------------------------------------|
                                                                  end Rhy Fig 2-|

e|-------------10--------------10--------------10--------------10--------------10---------|
B|----------------------------------------------------------------------------------------|
G|--9b11==(9)r------9b11==(9)r------9b11==(9)r------9b11==(9)r------9b11==(9)r------9b11==|
D|----------------------------------------------------------------------------------------|
A|----------------------------------------------------------------------------------------|
E|----------------------------------------------------------------------------------------|

e|----------------------------------------------------------------------------------------|
B|--7-----------7---7------7----7---7-----------7---7-----------7---7-----------7---7-----|
G|--6-----------6---6-----(6)---6---6-----------6---6-----------6---6-----------6---6-----|
D|--7-----------7---7-----(7)---7---7-----------7---7-----------7---7-----------7---7-----|
A|-(6)---------(6)-(6)---------(6)-(6)---------(6)-(6)---------(6)-(6)---------(6)-(6)----|
E|--7-----------7---7-----(7)---7---7-----------7---7-----------7---7-----------7---7-----|

e|------10--------------10--------------10--------------10--------------10-------------10-|
B|----------------------------------------------------------------------------------------|
G|-(9)r------9b11==(9)r------9b11==(9)r------9b11==(9)r------9b11==(9)r-----9b11==(9)r----|
D|----------------------------------------------------------------------------------------|
A|----------------------------------------------------------------------------------------|
E|----------------------------------------------------------------------------------------|

e|----------------------------------------------------------------------------------------|
B|-(7)---7---7-----------7---7-----------7---7-----------7---7-----(7)---7---------7------|
G|-(6)---6---6-----------6---6-----------6---6-----------6---6-----(6)---6---------6------|
D|-(7)---7---7-----------7---7-----------7---7-----------7---7-----(7)---7---------7------|
A|------(6)-(6)---------(6)-(6)---------(6)-(6)---------(6)-(6)---------(6)-------(6)-----|
E|-(7)---7---7-----------7---7-----------7---7-----------7---7-----(7)---7---------7------|

                                                ~~~~~~
e|----------------12-12--------10---------------------------|
B|----------------------------------------------------------|
G|-11b13==(11)-11-11-11r-9b11==(9)---(9)r-9-7---7-(7)-7-----|
D|--------------------------------------------9---------9-7-|
A|----------------------------------------------------------|
E|----------------------------------------------------------|

e|----------------------------------------------------------|
B|------------------------------7--7------7-----7-------7-7-|
G|------------------------------6--6------6-----6-------6-6-|
D|------------------------------7--7------7-----7-------7-7-|
A|------------------------------6--6------6-----6-------6-6-|
E|----------7------7----------------------------------------|

e|---------------------7-----------------7-------------------------|
B|-----------------7---7--7-10b12==(10)r---10-10-------------------|
G|---9b11====(9)r------------------------------9pb11r(9)-7---------|
D|-0--------------------------------------------------------9p==7--|
A|-----------------------------------------------------------------|
E|-----------------------------------------------------------------|

  PM------|
e|-----------------------------------------------------------------|
B|-----------------7---7-------------7---------7------------7---7--|
G|-----------------6---6-------------6---------6------------6---6--|
D|-----------------7---7-------------7---------7------------7---7--|
A|----------------(6)-(6)-----------(6)-------(6)----------(6)-(6)-|
E|-7-------7-------------------------------------------------------|

              ~~~              ~~~~~~~~
e|--------------------------------------------|
B|--------12-12------/12------12--(12)-----12-|
G|-0-9s13------------/13---------------13-----|
D|-0---------------0--------------------------|
A|-7---------------0--------------------------|
E|--------------------------------------------|

   PM--|
e|--------------------------------------------|
B|------------7--------7----x--7--------7-----|
G|------------6--------6----x--6--------6-----|
D|------------7--------7----x--7--------7-----|
A|-----------(6)------(6)---x-(6)------(6)----|
E|-7----7-------------------------------------|

    ~~       ~~~
e|----------------------------14b17==(14)-----(14)r-14--12--|
B|-12----12-12---------12-----------------------------------|
G|----13------------13--------------------------------------|
D|----------------------------------------------------------|
A|----------------------------------------------------------|
E|----------------------------------------------------------|

    PM|
e|----------------------------------------------------------|
B|-----------7---7---------7---------------7---------7---7--|
G|-----------6---6---------6---------------6---------6---6--|
D|-----------7---7---------7---------------7---------7---7--|
A|----------(6)-(6)-------(6)-------------(6)-------(6)-(6)-|
E|--7--7----------------------------------------------------|

                         ~~~                          ~~~~~~~~
                                   |-----3------|
e|----------------------------------------------------------------------------|
B|-14b15==(14)r-14p12----12-----12-14b15r(14)p==12----12--(12)-14b16==(14)rs==|
G|--------------------13-----13--------------------13-------------------------|
D|----------------------------------------------------------------------------|
A|----------------------------------------------------------------------------|
E|----------------------------------------------------------------------------|

e|------------------------7---------7------------------7----------------9---7-|
B|------------------------7---------7------------------7----------------9---7-|
G|------------------------7---------7------------------7----------------9---7-|
D|-----------------------(6)-------(6)----------------(6)---------------------|
A|----------7-------7---------------------------------------------------------|
E|----------------------------------------------------------------------------|

                     ~~~~~~~~~~~~~~~~~~~
e|---------------19-19-19----19-(19)-19-----19---|
B|--3--(3)S==x-x---------------------------------|
G|-----------x-x---------------------------------|
D|-----------------------------------------------|
A|-----------------------------------------------|
E|-----------------------------------------------|

e|-(7)---------7--------7-----7----------7---7---|
B|-(7)---------7--------7-----7----------7---7---|
G|-(7)---------7--------7-----7----------7---7---|
D|--------------------------------------(6)-(6)--|
A|---------7-------------------------------------|
E|-----------------------------------------------|

                 |-3-|
e|-19S7----7--10-7h9p7-----------7----------------------|
B|------7--------------10b10.5-7---10-------------10----|
G|-------------------------------------9b11==(9)r--9--7-|
D|------------------------------------------------------|
A|------------------------------------------------------|
E|------------------------------------------------------|

    PM|
e|------------------------------------------------------|
B|---------7------------7--------x--7--------------7----|
G|---------6------------6--------x--6--------------6----|
D|---------7------------7--------x--7--------------7----|
A|--------(6)----------(6)---------(6)------------(6)---|
E|--7-7-------------------------------------------------|

         ~~~~~~
                                     |-3-|
e|--------------------------------------------------|
B|--------------------------------------------------|
G|-9-7---7-(7)--7-----------------------------------|
D|-----9--------x--9p7--9p=7------------------------|
A|---------------------------9--8--7s8p7s5------5---|
E|------------------------------------------7-------|

   PM--|
e|--------------------------------------------------|
B|----------7---7-------7-------7-----------7---7---|
G|----------6---6-------6-------6-----------6---6---|
D|----------7---7-------7-------7-----------7---7---|
A|---------(6)-(6)-----(6)-----(6)---------(6)-(6)--|
E|-7---7--------------------------------------------|

e|-----------------------------------------|
B|-----------------------------------------|
G|----------------------7------------------|
D|-------7-------7-------------7-----------|
A|--7s=9------9----7s9-----7s9---7p5-----5-|
E|---------0---------------0----------7----|

e|--9---------9---------9-------------8----|
B|--9---------9---------9----x-9------8----|
G|--9---------9---------9----x-9------8----|
D|-(8)-------(8)-------(8)-----8-----(7)---|
A|--9---------9---------9------9------8----|
E|-----------------------------------------|

                 ~
e|------------------------------------------------||
B|------------9--7---7----------9b10r(9)----------||
G|------------9--7---7----------9b10r(9)p7--------||
D|-------7--------------9p=7----------------9p=7--||
A|--7s=9---7-----------------0--------------------||
E|------------------------------------------------||

e|--7---------7---------7-------7-----------7-----||
B|--7---------7---------7-------7-----------7-----||
G|--7---------7---------7-------7-----------7-----||
D|-(6)-------(6)-------(6)-----(6)---------(6)----||
A|--7---------7---------7-------7-----------7-----||
E|------------------------------------------------||

  Gtrs I, II
                                                         |---3----|
e|----------------------------------|------------------0----------------|
B|----------------------------------|-2---------------------------------|
G|-----------------------8---8-8\-0-|-2------------------2pb4r(2)p0-----|
D|---6-9-------4---------7---7-7\---|-2----------2-(2)--------------2p0-|
A|-7-----5-(5)-----------6p0-6-6\---|-----------------------------------|
E|---------------7-(7)-x-7---7-7\---|----3-(3)-0------------------------|

                                                    D.S. al Coda
e|----------------------------|---------------------|------------||
B|----------------------------|-2-------------------|------------||
G|---------------------8-8-8\-|-2--------x----------|------------||
D|---6-9-------4-------7-7-7\-|-2--------x----------|------------||
A|-7-----5-(5)---------6-6-6\-|-0-------------------|------------||
E|---------------7-(7)-7-7-7\-|----3-(3)---0-(0)----|-(0)--------||

e|-------------------------------|-----------------------------||
B|-----------------------------x-|-----------------------------||
G|---------------------x-6-6-6-x-|---------------------x-------||
D|---6-9-------4-------x-7-7-7-x-|---6-9-------4-------x-------||
A|-7-----5-(5)---------x-6-6-6---|-7-----5-(5)---------x---5-6-||
E|---------------7-(7)---7-7-7---|---------------7-(7)-7-7-----||

[Out-Chorus]
e|------7---7-----7-----7---7--7---|-------------------------------|
B|------7---7-----7-----7---7--7---|------7---7-----7-----7-----7--|
G|------7---7-----7-----7---7--7---|------6---6-----6-----6-----6--|
D|-----(6)-(6)---(6)---(6)-(6)-6---|------7---7-----7-----7-----7--|
A|-7-7-----------------------------|-----(6)-(6)---(6)---(6)---(6)-|
E|---------------------------------|-7-7---------------------------|

e|------7--7----7-----7-----7--|
B|------7--7-x--7-----7-----7--|
G|------7--7-x--7-----7-----7--|
D|-----(6)-6---(6)---(6)---(6)-| x2
A|-7-7-------------------------|
E|-----------------------------|

                                                                   PM|
e|------7---7-----7-----7----7-|-----------------13s14-----------------||
B|------7---7-----7-----7----7-|----7---7---7----13s14----13s==14------||
G|------7---7-----7-----7----7-|----6---6---6----13s14----13s==14------||
D|-----(6)-(6)---(6)---(6)---6-|----7---7---7------------(12)s(13)-----||
A|-7-7-------------------------|---(6)-(6)-(6)------------13s==14------||
E|-----------------------------|-7---------------------------------7-7-||


[Guitar Solo]

e|-----------------------------------------|
B|-----------------------------------------|
G|-------------------9b11==(9)r(9)-7-------|
D|------------------------------------9p=7-|
A|-----------------------------------------|
E|-----------------------------------------|

   ~                                                              ~~~~
e|-----------------------------------------|-7------------------------------------|
B|---------------------------------------7-|-7-7-10b12==========(10)--------------|
G|-7-------------x--x-x--x--x-9b11==(9)r---|--------------------------------------|
D|------9--7-----x--x-x--x--x--------------|--------------------------------------|
A|-----------9\----------------------------|--------------------------------------|
E|-----------------------------------------|--------------------------------------|

e|------------------------------------------------|
B|-(10)r-10pb12==(10)-10----10----10-10--(10)-10--|
G|-------10pb11==(10)-10----10----10-10--(10)-10--|
D|------------------------------------------------|
A|------------------------------------------------|
E|------------------------------------------------|

    ~~~~~~~~~~~~~~~~~~~~~~~~~~~~~~~~~~~~~~~~~~~~~~~~~~~~~~~~~~~~~~~~~~~~~~~~~~~~~~~~~~~
e|----------------------------------------|--------------------------------------------|
B|-10----10-(10)---10-10----10-----10-10--|-10-10-10-10----10-10----10-10--(10)-10--10-|
G|-10----10-(10)---10-10----10-----10-10--|-10-10-10-10----10-10----10-10--(10)-10--10-|
D|----------------------------------------|--------------------------------------------|
A|----------------------------------------|--------------------------------------------|
E|----------------------------------------|--------------------------------------------|

    ~~~~~~~~~~~~~~~~~~~~~~~~~~~~~~~~~~~~~~~~
e|-----------------------------------------|
B|-10-10-10----10-10----10-10--(10)-10-10--|
G|-10-10-10----10-10----10-10--(10)-10-10--|
D|-----------------------------------------|
A|-----------------------------------------|
E|-----------------------------------------|

   ~~~~~~~~~~~~~~~~~~~~~~~~~~~~~~~~~~~~~~~~~~
e|--------------------------------------------|
B|-10-10-10-(10)-10-10-10--10-10-----10-10r-0-|
G|-10-10-10-(10)-10-10-10--10-10-----10-10r-0-|
D|--------------------------------------------|
A|--------------------------------------------|
E|--------------------------------------------|

e|-10b12-10b11--7------------------7-7-----------------|
B|-----------------10-7------------7-7-10--10----------|
G|----------------------9b11==(9)r----------9b11--9p=7-|
D|-----------------------------------------------------|
A|-----------------------------------------------------|
E|-----------------------------------------------------|

                                   |-3-|
e|---------------------------------------------|
B|---------------------------------------------|
G|-9p7---x--7~~~---x---------------------------|
D|-----9-x---------x--9--7---------------------|
A|-------------------------9--8--7s8p7s5--5----|
E|-------------------------------------------7-|

               ~~
e|-----------------------------------------7----|
B|----------9--7------------------------7-----7-|
G|----------9--7-------------9b11==(9)r---------|
D|-----7-------------9p=0-0---------------------|
A|-7-9------------------------------------------|
E|-------9--------------------------------------|

e|-------7-7-------7----------------7-7-------7-7-------7--|
B|-10b12---7-10b12-7---10b12==(10)r-7-7-10b12-7-7-10b12-7--|
G|-------------------0-------------------------------------|
D|-------------------0-------------------------------------|
A|---------------------------------------------------------|
E|---------------------------------------------------------|

e|-7-------7-7-------7-7--------7--7--------7--7--------7--7-|
B|-7-10b12-7-7-10b12-7-7-10b12--7--7-10b12--7--7-10b12--7--7-|
G|-----------------------------------------------------------|
D|-----------------------------------------------------------|
A|-----------------------------------------------------------|
E|-----------------------------------------------------------|

e|-------7-7--------7--7-------7--7--------7--7--10b12==(10)-----|
B|-10b12-7-7-10b12--7--7-10b12-7--7--10b12-7--7------------------|
G|---------------------------------------------------------------|
D|---------------------------------------------------------------|
A|---------------------------------------------------------------|
E|---------------------------------------------------------------|

e|-(10)r---------10b12==(10)-(10)r-10b12==(10)-----(10)r-10b12==(10)r-|
B|---------------10b12==(10)-(10)r-10b12==(10)-----(10)r-10b12==(10)r-|
G|--------------------------------------------------------------------|
D|--------------------------------------------------------------------|
A|--------------------------------------------------------------------|
E|--------------------------------------------------------------------|

e|-11b13==(11)r---11b13==(11)r---11-12b14==(12)r---12b14==(12)r-12b14-----12b14==|
B|-11b13==(11)r---11b13==(11)r---11-12b14==(12)r---12b14==(12)r-12b14-----12b14==|
G|-------------------------------------------------------------------------------|
D|-------------------------------------------------------------------------------|
A|-------------------------------------------------------------------------------|
E|-------------------------------------------------------------------------------|

                                                                ~~~
e|-(12)r-12b14==(12)r-12b14==(12)r-12b14---12b14==(12)r-12-10-----|
B|-(12)r-12b14==(12)r-12b14==(12)r-12b14---12b14==(12)r--------12-|
G|----------------------------------------------------------------|
D|----------------------------------------------------------------|
A|----------------------------------------------------------------|
E|----------------------------------------------------------------|

  ~~~~~~                            ~~~
e|------10----------7------------7------------------------|
B|-(12)----12p10s7--7--10p7------7------------------------|
G|--------------------------9b11----7----------9-7--------|
D|---------------------------------------9--7-------9--7--|
A|--------------------------------------------------------|
E|--------------------------------------------------------|

e|--------------10------------------------------------------|
B|----------------------------------------7-----------------|
G|---9b11==(9)r-----9b11====9r-9b11==(9)r---9p=7--9-7-------|
D|-----------------------------------------------------9--7-|
A|-7--------------------------------------------------------|
E|----------------------------------------------------------|

e|-----------------7----7--------------7-----------------------|
B|--------------7-----7---10b12==(10)r---10-10-----------------|
G|---9b11==(9)r------------------------------9b11r(9)-7--------|
D|-------------------------------------------------------9p=7--|
A|-x-----------------------------------------------------------|
E|-7-----------------------------------------------------------|

                                  |---3----|
e|------------------------10--10-------------7----7---------|
B|---10s12-10-12~~~-12-12--------12p10s====7---7-----10b12==|
G|----------------------------------------------------------|
D|-0--------------------------------------------------------|
A|----------------------------------------------------------|
E|----------------------------------------------------------|

e|-------7------------------------------------------------|
B|-(10)r---10-10------------------------------------------|
G|-------------9b11r(9)-7---------9b11r(9)--7--9-7--------|
D|------------------------9p7--x--------------------9p=7--|
A|--------------------------------------------------------|
E|--------------------------------------------------------|

   ~                                    ~~~
e|-------------------7--7--------7--------|
B|-7---------------7-7--7--10b12----7--10-|
G|-7------------9-------------------------|
D|----------------------------------------|
A|----------------------------------------|
E|----------------------------------------|

  ~~~~~~
e|------7---------------7-7-7--7--10b12==(10)-----(10)-(10)-----|
B|-(10)---10------------7-7-7--7------------------------10pb11==|
G|-----------9b11==(9)r---------------------------------10pb11==|
D|--------------------------------------------------------------|
A|--------------------------------------------------------------|
E|--------------------------------------------------------------|
                                         
                |---3---|
e|-(10)r-10----(10)-----10b12==(10)-(10)r-10~~~-----10b12==(10)-(10)-----|
B|-(10)r----------------10b12========10r--10~~~------------------10pb12==|
G|-(10)r------------0-----------10---10--------------------------10pb12==|
D|------------------0----------------------------------------------------|
A|-----------------------------------------------------------------------|
E|-----------------------------------------------------------------------|

e|-(10)r-10b12-------------------------------------------------12b14==|
B|--10r--10b12---10b12-10b11---10b12-10b11-----10b12-10b11-----12b14==|
G|--10r----------------10b11---------10b11-----------10b11------------|
D|--------------------------------------------------------------------|
A|--------------------------------------------------------------------|
E|--------------------------------------------------------------------|

     ~~~~~
e|-(12)r==(12)---------12b14==12r=(12)-10----------|
B|-(12)r==(12)----------------------------12p=10s7-|
G|------------------x------------------------------|
D|------------------x------------------------------|
A|-------------------------------------------------|
E|-------------------------------------------------|

e|-7------7--------------7---------7-----------------------*|
B|---10p7-7------------7---7-10b12---10-10-----------------*|
G|----------9b11==(9)r-------------------9b11r(9)-7--------*|
D|---------------------------------------------------9p=7--*|
A|---------------------------------------------------------*|
E|---------------------------------------------------------*|


************************************

| x    Dead note
| (n)  Ghost note
| h    Hammer-on
| p    Pull-off
| r    Release
| b    Bend
| pb   Pre-bend
| /    Slide up
| \    Slide down
| ~    Vibrato
| s    Slide

************************************
Suggest correction
comments
print report bad tab
6 comments total. Showing first comments.
0 reply
fligi3 10 wrote on August 1 2007, 04:18 pm

Ooo, rough.

+2 reply
fligi3 10 wrote on August 1 2007, 04:18 pm

Not the tab by the way...

Just that it is hard to play parts of it. It's a great tab.

+2 reply
TeenageRockStar 10 wrote on January 19 2008, 11:45 am

dude great job I like your tab better than version 2... something doesnt sound right when i play the other one... but i
can wait to impress one of my parents friends that has been tellin me for a while to learn a couple of stevie ray
vaughans songs

guest
You may want to rate the tab now too:
select rating
Wanna post a correction for this tab? Suggest correction