Oops, an error
Loading. Please wait.

Voodoo Chile Tab

version 1
version 1

Whole song

Interactive

118,403 views 159 this week
23 commentsread comments
1 2 3 4 5
x 30
add to favorites
launch autoscroll
font size
0
reset
how to read this tab
guitar tuner
Autoscroll
slow
fast
+/-
esc
set tempo
stop
Help us to improve Ultimate-Guitar.com Take our survey!
×
Author
Tuning
D# G# C# F# A# D#
Stevie Ray Vaughan - Voodoo Chile                                   
                                   by deck_dalo

                                                               
D#|--------------------------------|--------------------------------|
A#|--------------------------------|--------------------------------|
F#|--------------------------------|--------------------------------|
C#|-------------x-x-----x-x-x--x-x-|------x--------x---------x--x-x-|
G#|--------------------------------|--------------------------------|
D#|--x--x-x-x-x-----x-x------------|--x-x----x-x-x---x-x-x-x--------|


                                                                 
D#|-------------------------------|--------------------------------|
A#|-------------------------------|--------------------------------|
F#|-------------------------------|--------------------------------|
C#|--x---x------x----------x--x-x-|------x------x----------x-x-----|
G#|-------------------------------|--------------------------------|
D#|----x----x-x----x-x-x-x--------|--x-x----x-x----x-x-x-x-----x-x-|


                                                           2x
D#|----------------------------|---------------------------||
A#|---5---3----3---------------|--5~--3---3-5~-------------||
F#|*--------4-----0--0--2-0----|--------4--------7--------*||
C#|*------------------------2--|--------------------5-5/--*||
G#|----------------------------|---------------------------||
D#|----------------------------|---------------------------||


                                                          
D#|---------------------------|-----------------------------|
A#|--5---3----3---------------|--5~--3---3-5--10r-10--8-----|
F#|--------4-----0--0--2-0----|--------4-----------------9--|
C#|------------------------2--|-----------------------------|
G#|---------------------------|-----------------------------|
D#|---------------------------|-----------------------------|


                                                              
D#|------------------------------|------------------------------|
A#|------------------------------|------------------------------|
F#|--------2r2-0-----1-1-1-------|--------2r2-0-----1-1-1-------|
C#|------------------2-2-2-------|------------------2-2-2-------|
G#|------------------------------|------------------------------|
D#|--0---0-------0---------3--0--|--0---0-------0---------3--0--|


                                                      
D#|--------------------------|----------------0-0-0-----|
A#|--10b---10r10-8~----------|----------------0-0-0-----|
F#|--------------------------|----------------------2b--|
C#|--------------------------|-----------2--------------|
G#|---------------------7/---|--------------------------|
D#|--------------------------|--0---0-3b----------------|


                                                                
D#|--------------------------------|------------------------------|
A#|--------------------------------|------------------------------|
F#|--2b---2b---2b---2b---2b---2b---|--2b---2b---2b---2r----2-0----|
C#|--------------------------------|---------------------------2--|
G#|--------------------------------|------------------------------|
D#|--------------------------------|------------------------------|


                                                           
D#|----------------3-3-3--------|----------------3-3-3---3-3-|
A#|----------------3-3-3--------|----------------3-3-3---3-3-|
F#|-----------------------2r2-0-|----------------------------|
C#|-----------2-----------------|-----------2----------------|
G#|-----------------------------|----------------------------|
D#|--0---0-3--------------------|--0---0-3b------------0-----|


                                                         
D#|----------------3-3-3--------||-------------------------|
A#|----------------3-3-3--------||-------------------------|
F#|-----------------------2r2-0-||*------------------4--4--|
C#|-----------2-----------------||*-----------2------------|
G#|-----------------------------||-------------------------|
D#|--0---0-3b-------------------||---0---0-3b--------------|


                                                        
D#|--------7--5---5--3--------|---------------------------|
A#|--3--5--8--5-8-3--5--------|---------------------------|
F#|-------------4-------------|-------7-4-7----7-4-7--4---|
C#|---------------------------|--2----------------------7-|
G#|---------------------------|---------------------------|
D#|-----------------------0h3-|---------------------------|


                                                         
D#|-----------------------------||----------------0-0-0----|
A#|----------------------15b----||----------------0-0-0----|
F#|--2h0-----------------------*||-------------------------|
C#|------2h0----2--------------*||-------------------------|
G#|-----------------------------||-------------------------|
D#|----------3b------3-0--------||--0---0-3b-0-------------|


                                                                       
D#|----------------------------------|-----------------------------------|
A#|--3-3-3-3-3-3-3-3-3-3-3-3-3-3-3-3-|--2-2-2-2-2-2-2-2-2-2-2-2----------|
F#|--4-4-4-4-4-4-4-4-4-4-4-4-4-4-4-4-|--2-2-2-2-2-2-2-2-2-2-2-2-2--0-----|
C#|----------------------------------|--------------------------------2--|
G#|----------------------------------|-----------------------------------|
D#|----------------------------------|-----------------------------------|


                                                          
D#|----------------------------||--------------------------|
A#|-----------------0-0-15b----||--------------------------|
F#|*----------------1-1-------*||--3-----3-----3-----3-----|
C#|*-----------2--------------*||-----2--------------------|
G#|----------------------------||-----------3-----3-----3--|
D#|---0---0-3b-----------------||--------------------------|


                                                        
D#|---------------------------|---------------------------|
A#|---------------------------|-----------3b-----3r3-0-3b-|
F#|--5-----5-----5------5-----|---------------------------|
C#|---------------------------|---------------------------|
G#|-----5-----5-----5-5----5--|---------------------------|
D#|---------------------------|--0---0-3b-----------------|


                                                                      
D#|----------------------------------------|----------------------------|
A#|--3r3-0---------------------------------|--15b---15r15-12--15~-------|
F#|--------2r2-0---2-0---------------2-0---|----------------------------|
C#|--------------2-----2-0-----------------|----------------------------|
G#|------------------------0h1h0-----------|----------------------------|
D#|------------------------------3-0-------|----------------------------|


                                               
D#|------------12--------------------------------|
A#|--------12------15------12-----12-------------|
F#|----14b-------------14b----14b----14b-14b-14r-|
C#|----------------------------------------------|
G#|----------------------------------------------|
D#|----------------------------------------------|


                                                                         
D#|--------------------------------------|------------------------12----15b|
A#|--------------------------------------|------------8~-------12----12----|
F#|--12~---------------------------------|--7b--7b7b7b-----14b-------------|
C#|-----------14~---12-------------------|---------------------------------|
G#|--------------------14-12h13h12-------|---------------------------------|
D#|--------0-----------------------15-12-|---------------------------------|


                     
D#|--------------15b---|
A#|--------------------|
F#|--------------------|
C#|--------------------|
G#|--------------------|
D#|--------------------|


                                                                      
D#|--15b15-12h15h12----12-----------12-------------12-------------------|
A#|-----------------15----15-12-15b----15-12----12----15h12-------------|
F#|------------------------------------------14b------------14r14-12----|
C#|------------------------------------------------------------------14-|
G#|---------------------------------------------------------------------|
D#|---------------------------------------------------------------------|


                                                             
D#|--------------------------------|----------------0-0-0-0----|
A#|--12~---------------------------|----------------0-0-0-0----|
F#|-----------------------2h-0-----|----------------1-1-1-1-2b-|
C#|-----------12h14----2--------2--|-----------2---------------|
G#|--------------------------------|---------------------------|
D#|--------0--------0--------------|--0---0-3b-----------------|


                                                                              
D#|----------------------|------------------------|----------------3-3----------|
A#|----------------------|------------------------|----------------3-3----------|
F#|--2b2b--------2r-2----|--2b-2b-----2--2-0------|--------------------2r-2h0---|
C#|----------------------|-------------------2----|-----------2---------------2-|
G#|----------------------|------------------------|-----------------------------|
D#|----------------------|------------------------|--0---0-3b-------------------|


                                                                          
D#|----------------3-3--------|----0------------------3-0-2h0---0-----------|
A#|----------------3-3-----0--|--3---3b-0-3h0---0-3h0---------3---3-0----0--|
F#|--------------------2b-----|---------------2b----------------------2b----|
C#|-----------2---------------|---------------------------------------------|
G#|---------------------------|---------------------------------------------|
D#|--0---0-3b-----------------|---------------------------------------------|


                                                                          
D#|------0---0-------------------------------|------------------------------|
A#|--3b----3b--3-0---------------------------|------------------------------|
F#|----------------2r2-0---2h0-1-------------|------------------------------|
C#|----------------------2-------2-0---------|------------2-5-2-------------|
G#|----------------------------------2-0h1h0-|----------4/--------2-1-0h1h0-|
D#|------------------------------------------|--3-0-------------------------|


                                                               
D#|----------------------9---9--|--9--8-8-7----9h7---7--9h7---7--|
A#|----------------------8---8--|--8--7-7------6--------6--------|
F#|--------------------9--------|--9--8-8-7----7---7----7---7----|
C#|------0h2--------------------|--------------------------------|
G#|-----------------------------|--------------------------------|
D#|--3-0-----0--0-0-0-----------|--------------------------------|


                                                           
D#|--9h7---7-----7--------------|-----------0-0--------------|
A#|--6--------5-----------------|-----------0-0--------------|
F#|--7---7----7-----9--8--7--7/-|--12~------1-1-2b---2-0-----|
C#|-----------------------------|------------------------2-0-|
G#|-----------------------------|----------------------------|
D#|-----------------------------|--------0-------------------|


                                  3x                                    
D#|-----------------3-3-----------||-----------------------------------|
A#|-----------------3-3-----------||--8--10----8-10r10-8-10-8h10h8-7---|
F#|*--------------------2r-2h0---*||-----------------------------------|
C#|*-----------2---------------2-*||-----------------------------------|
G#|-------------------------------||-----------------------------------|
D#|---0---0-3b--------------------||-----------------------------------|


                                                                               
D#|---------------------------------------|--------------------------------------|
A#|--8-7h8h7h8-7--5--7/-7/-5/-7/-5/-3/-5--|--7/-5/-3--5/-3--2--3--2h3h2----------|
F#|---------------------------------------|-----------------------------4--6--4--|
C#|---------------------------------------|--------------------------------------|
G#|---------------------------------------|--------------------------------------|
D#|---------------------------------------|--------------------------------------|


                                                                          3x
D#|--------------------------------------||-----------------3-3-----------||
A#|--------------------------------------||-----------------3-3-----------||
F#|--6/-7/-6--4/-2--4--2h4h2----2r2h0----||*--------------------2r-2h0---*||
C#|--------------------------5--------2--||*-----------2---------------2-*||
G#|--------------------------------------||-------------------------------||
D#|--------------------------------------||---0---0-3b--------------------||


                                 3x                                         
D#|---3--3--3-----3-3-3----------||--------------------|-------------------|
A#|---3--3--3-----3-3-3----------||--------------------|-------------------|
F#|*----------------------2-2h0-*||--2b---2~-----------|--------------2/---|
C#|*----------------------------*||--------------------|-------------------|
G#|------------------------------||--------------------|-------------------|
D#|------------0-----------------||--------------------|-------------------|


                                  3x                                   3x
D#|-----------------3-3-----------||-----------------------------------||
A#|-----------------3-3-----------||-----------------------------------||
F#|*--------------------2r-2h0---*||*------------------------2r2-12-0-*||
C#|*-----------2---------------2-*||*---------------------------------*||
G#|-------------------------------||-----------------------------------||
D#|---0---0-3b--------------------||---x-x-x-x-3b-0--x-x-x-x-----------||


                                         
D#|----------------------------------------|
A#|----------------------------------------|
F#|--14r14-----12--------------------------|
C#|--------14--------14-12-----------------|
G#|------------------------14-13-12--------|
D#|----------------------------------15-12-|


                                                
D#|-----------------------------------------------|
A#|-----------------------------------------------|
F#|-------------------------12-14b-12-14-12-------|
C#|--12h14h12-14h12---14-14-----------------14-12-|
G#|-----------------------------------------------|
D#|-----------------------------------------------|


                                                                          
D#|----------------------------------|--------------------------------------|
A#|--15------------------------------|--------------------------------------|
F#|-----14b--12---14--------------12-|--------------------12----14-12----12-|
C#|------------------14---12-12------|--------------14-12----14-------14----|
G#|----------------------------------|--12~---10~---------------------------|
D#|----------------------------------|--------------------------------------|


                                            
D#|------------12-----------------------------|
A#|---------12----14-12-----------14-12-------|
F#|------12-------14-12---12-14---14-12-------|
C#|--14---------------------------------14-12-|
G#|-------------------------------------------|
D#|-------------------------------------------|


                                                                            
D#|----12------------------------------|----12--------------------------------|
A#|----12--14-12-----------12----------|----12--14-12-------------------------|
F#|--------14-12---12-14---12----------|--------14-12---12--14r14-12----------|
C#|---------------------------14-12-14-|------------------------------14--12--|
G#|------------------------------------|--------------------------------------|
D#|------------------------------------|--------------------------------------|


                                         
D#|----------------------------------------|
A#|----13b---------------------------------|
F#|--------12------------------------------|
C#|------------14-12-14-12-----------------|
G#|------------------------14-13-12--------|
D#|----------------------------------15-12-|


                                             
D#|--------------------------------------------|
A#|--------------------------------------------|
F#|--------------------------12-14--12---------|
C#|--12h14-12--------------------------14---12-|
G#|-----------14-13-12-------------------------|
D#|--------------------15-12-------------------|


                                           
D#|------------------------------------------|
A#|------------------------------14-14-------|
F#|------12----12----------------14-14-------|
C#|--14-----14-----14--12--14----------------|
G#|------------------------------------------|
D#|------------------------------------12-12-|


                                           
D#|------------------------------------------|
A#|--12------------------14------14-12-------|
F#|--12------------------14-12~--14-12-------|
C#|-----14-14-14-12-14-----------------14-12-|
G#|------------------------------------------|
D#|------------------------------------------|


                                                                          3x
D#|----15--15----------------------------||-----------------3-3-----------||
A#|----15--15----------------------------||-----------------3-3-----------||
F#|------------12------------14-12-------||*--------------------2r-2h0---*||
C#|----------------12--14-12-------14-12-||*-----------2---------------2-*||
G#|--------------------------------------||-------------------------------||
D#|--------------------------------------||---0---0-3b--------------------|



************************************

| x  Dead note
| h  Hammer-on
| r  Release
| b  Bend
| /  Slide up
| ~  Vibrato

************************************
Suggest correction
comments
print report bad tab
23 comments total. Showing first comments.
0 reply
Pink_Floyd_Net 30 Feb 19, 2005 12:00 AM

Try this for the beginning riff!!
eb|-----------------------------------
Bb|-----------------------------------
Gb|-9b--7---7---------9b--7-------9-7-
Db|-------9---5-5-7---------9p7h9-----
Ab|-----------------5-----------------
Eb|-----------------------------------
This is what it sounds like he's doing...and looks like it in concert.

-1 reply
TheMutts 10,469 Feb 20, 2005 12:00 AM

i thought it was "Voodoo Child" ? am I retarded?

0 reply
TBSFan2758 100 Feb 20, 2005 12:00 AM

nice tab, pretty kool. good song! sweet job, i will rate you a 5!

guest
You may want to rate the tab now too:
select rating
Wanna post a correction for this tab? Suggest correction