Oops, an error
Loading. Please wait.

Crossfire Tab

version 1
version 1

Solo

Whole song

18,039 views 6 this week
2 commentsread comments
1 2 3 4 5
x 8
add to favorites
launch autoscroll
font size
0
reset
how to read this tab
guitar tuner
Autoscroll
slow
fast
+/-
esc
set tempo
stop
Author
Crossfire (Solo)
by Stevie Ray Vaughan
Email me at: Supraslick15_14@Juno.com
AIM: IbanezProne
Tuning: E Flat


Solo (Set to bridge and middle pickups)

e-17b17b---15--------------15-17-17b19--15gb-------15b17--17--|
b--------------17v-17v-17v------------------17-17-------------|
g-------------------------------------------------------------|
d-------------------------------------------------------------|
a-------------------------------------------------------------|
E-------------------------------------------------------------|


e-17fb(gr)(17)15b17-15---------15----------|
b----------------------17-17----17wv-------|
g------------------------------------------|
d------------------------------------------|
a------------------------------------------|
E------------------------------------------|


e-----------------------------------------12-------------|
b-17p15--------------------------------12----12-15b17----|
g-------16\14b15--14p12-----12v14vb16--------------------|
d------------------------14------------------------------|
a--------------------------------------------------------|
E--------------------------------------------------------|


e--12--------------12-----------12------------12-----|
b-----15--------12----12-15b17-----12-15b17------12--|
g--------14b16---------------------------------------|
d----------------------------------------------------|
a----------------------------------------------------|
E----------------------------------------------------|


e--------12--------------12----15b17--15b17--15-15gb16-12--12-15-12wv-------|
b-15b17-----15--------12----12---------------------------12-----------15p12-|
g--------------14b16--------------------------------------------------------|
d---------------------------------------------------------------------------|
a---------------------------------------------------------------------------|
E---------------------------------------------------------------------------|


e-------12------------------------------------------|
b-------12------------------------------------------|
g-14b16----14b1514p12----12wv-----------------------|
d---------------------14------14p12--------12-------|
a-----------------------------------12h14-----------|
E-----------------------------------------------0---|


e-17b19--17--15b16----15wv--17------------------|
b------------------17----------17\--------------|
g-----------------------------------------------|
d-----------------------------------------------|
a-----------------------------------------------|
E-----------------------------------0---0-------|

    Pick while bent
e----17b17b17b17b17b17b-------------------|
b-----------------------------------------|
g-----------------------------------------|
d-----------------------------------------|
a-----------------------------------------|
E-(0)-------------------------------------|


e-15------------------15b16--17--17b19(gr)17-17-17b19------17b18---------|
b-----17wv--17wv-17wv---------------------17-17-17b19--------------------|
g------------------------------------------------------------------------|
d------------------------------------------------------------------------|
a------------------------------------------------------------------------|
E------------------------------------------------------------------------|


e-(17)b19--17b18--------15-------------------------------------------12-----|
b-----------------17-17----17wv-17p15------------------------------12--12---|
g-------------------------------------16-14b16--14p12---12b13-14b16---------|
d-----------------------------------------------------14--------------------|
a---------------------------------------------------------------------------|
E---------------------------------------------------------------------------|


e-15b17----12-------------------------------------------------------|
b-------15---15-15-----------------------------------12-------------|
g---------------14br15-12-------14br14-12--14p12-----12--14gb16-----|
d-------------------------14-12------------------14-----------------|
a-------------------------------------------------------------------|
E-------------------------------------------------------------------|


e-12------------12-----------15---------------15b16-17--|
b----12--15b17-----12--15-17---17wv-17wv-17wv-----------|
g-------------------------------------------------------|
d-------------------------------------------------------|
a-------------------------------------------------------|
E-------------------------------------------------------|

                                      Pick while bent
e-17b19-16b17--15----------------15---17b17b17b17b----17b19-------|
b-----------------17wv-17wv-17wv----------------------------------|
g-----------------------------------------------------------------|
d-----------------------------------------------------------------|
a-----------------------------------------------------------------|
E-------------------------------------------------------------0---|

e-12-------------------------------------------------------------|
b-12-------------------------------------------12-14b15-12-------|
g----14b16--14p12---12b13----------------------12-14b15-12-------|
d-----------------14--------14p12-------12--14-------------14----|
a---------------------------------12/14--------------------------|
E----------------------------------------------------------------|


e------------------------------------------------|
b----12------------------------------------------|
g----12------------------------------------------|
d-14-----12(12)h14-------12-----------12h14------|
a------------------12h14----12-------------------|
E-------------------------------15b16---------0--|



This is the entire solo for Crossfire...im sure this is 100% correct.
I took a long time so enjoy it!


Key:
h - Hammer On
p - Pull Off
fb - Full Bend
b - Bend
v - Vibrato
wv - Wide Vibrato
gb - Gradual Bend
\ - Slide Down
/ - Slide up
Suggest correction
comments
print report bad tab
2 comments total.
0 reply
Robo_Hobo 20 Jan 02, 2005 07:00 PM

This is a good tab,nice 5/5

0 reply
voodoochild23 30 Jun 16, 2010 10:06 AM

Awesome, thanks for making this tab

guest
You may want to rate the tab now too:
select rating
Wanna post a correction for this tab? Suggest correction