Oops, an error
Loading. Please wait.

Hug You Squeeze You Tab

version 2
version 2

Whole song

  • This is the ultimate tab, its perfect.
28 views 3 this week
no commentswrite comment
1 2 3 4 5
3 more votes to show rating
add to favorites
launch autoscroll
font size
0
reset
how to read this tab
guitar tuner
Autoscroll
slow
fast
+/-
esc
set tempo
stop
Author
Difficulty
intermediate
About this tab version
This is the ultimate tab, its perfect. Was this info helpful? Yes No
Stevie Ray Vaughan - Hug You, Squeeze You
 Tab by aldoalain

e|--------------------------------------------------------------0--0---------|
B|-0h2p0-5-3b--0-------2b-2r--0-----------0-----0-----0---------0--0---------|
G|-------------0-------2b-2r--0-------0h1---0h1---0h1---0h1-----1--1---------|
D|---------------2---2----------2---2-----------------------2---2--2---------|
A|---------------------------------------------------------------------------|
E|---------------------------------------------------------------------------|

e|-0-----------------------------------------------------------0--0----------|
B|-0-0h2p0-5-3-0-------2b-2r-0-----------0-----0-----0---------3--0----------|
G|-1-----------0-------2b-2r-0-------0h1---0h1---0h1---0h1-----1--1----------|
D|-2-------------2---2---------2---2-----------------------2---2--2----------|
A|---------------------------------------------------------------------------|
E|---------------------------------------------------------------------------|

e|-0-----------------------------------------------------------0--0--0-------|
B|-0-0h2p0-5-3-0-------2b-2r-0-----------0-----0-----0---------3--0--0-------|
G|-1-----------0-------2b-2r-0-------0h1---0h1---0h1---0h1-----1--1--1-------|
D|-2-------------2---2---------2---2-----------------------2---2--2--2--x----|
A|----------------------------------------------------------------------x----|
E|----------------------------------------------------------------------0----|

e|-0-x-0-x-0-x------0-x-0-x-0-x-----0-x-0------------------------------------|
B|-3-x-0-x-0-x------3-x-0-x-0-x-----3-x-0------------------------------------|
G|-1-x-1-x-1-x-1----1-x-1-x-1-x-1---1-x-1------------------------------------|
D|-2-x-2-x-2-x-2----2-x-2-x-2-x-2---2-x-2------------------------------------|
A|---------------------------------------------------------------------------|
E|---------------0----------------0------------------------------------------|

            x5
e|-----x------|-------0-------0-----------0-------|--x-x--x-x--x-x--x-x--x-0-|
B|---x-x--x---|-0-2---0-----2-0-----0-2---0-------|--x-x--x-x--x-x--x-x--x-0-|
G|---x----x---|-0-2---0h1---2-0h1---0-2---0h1p0h1-|--x-x--x-x--x-x--x-x--x-0-|
D|---x----x---|-----2-----2-------2-----2---------|--x-x--x-x--x-x--x-x--x---|
A|----------x-|-----------------------------------|--x-x--x-x--x-x--x-x--x---|
E|----------x-|-----------------------------------|--------------------------|

e|-x--x-x--x-x--x-0-|-------0-------0-----------0---|-x-x--x-x--x-x--x-x--x-0|
B|-x--x-x--x-x--x-0-|-0-2---0-----2-0-----0-2---0---|-x-x--x-x--x-x--x-x--x-0|
G|-x--x-x--x-x--x-0-|-0-2---0h1---2-0h1---0-2---0h1-|-x-x--x-x--x-x--x-x--x-0|
D|----x-x--x-x--x---|-----2-----2-------2-----2-----|------------------------|
A|------------------|-------------------------------|------------------------|
E|------------------|-------------------------------|------------------------|

e|-x--x-x--x-x--x-0-|-------0-------0----------------------------------------|
B|-x--x-x--x-x--x-0-|-0-2---0-----2-0----------------------------------------|
G|-x--x-x--x-x--x-0-|-0-2---0h1---2-0h1---x----------------------------------|
D|------------------|-----2-----2-------2-x-1-1------------------------------|
A|------------------|-----------------------2-2------------------------------|
E|------------------|--------------------------------------------------------|

                                                                           x2
e|-x-x--x-x--x-x--x-x--x-0-|-x--x-x--x-x--x-0-|-------0-------0-----------0--|
B|-x-x--x-x--x-x--x-x--x-0-|-x--x-x--x-x--x-0-|-0-2---0-----2-0-----0-2---0--|
G|-x-x--x-x--x-x--x-x--x-0-|-x--x-x--x-x--x-0-|-0-2---0h1---2-0h1---0-2---0h1|
D|-------------------------|------------------|-----2-----2-------2-----2----|
A|-------------------------|------------------|------------------------------|
E|-------------------------|------------------|------------------------------|

e|-x-x--x-x--x-x--x-x--x-0-|-x--x-x--x-x--x-0-|-------0-------0---------2----|
B|-x-x--x-x--x-x--x-x--x-0-|-x--x-x--x-x--x-0-|-0-2---0-----2-0-----0---0----|
G|-x-x--x-x--x-x--x-x--x-0-|-x--x-x--x-x--x-0-|-0-2---0h1---2-0h1---0-2------|
D|-------------------------|------------------|-----2-----2-------2---1------|
A|-------------------------|------------------|-----------------------2------|
E|-------------------------|------------------|------------------------------|


e|-x-x--x-x--x-0---x--x-0---x-x--x-x--x-x--x-x--x-0---0---0----0---0---0---0-|
B|-x-x--x-x--x-2---x--x-2---x-x--x-x--x-x--x-x--x-2-x-2---2-x--2---2-x-2---2-|
G|-x-x--x-x--x-1---x--x-1---x-x--x-x--x-x--x-x--x-1-x-1---1-x--1---1-x-1---1-|
D|-------------2--------2-------------------------2-x-2---2-x--2---2-x-2---2-|
A|---------------------------------------------------------------------------|
E|---------------------------------------------------------------0-----------|

e|-x-x--x-x------------x-x--x-x--x-x--x-x--x-0---0---0----0---0---0---0------|
B|-x-x--x-x-5--x-x--5--x-x--x-x--x-x--x-x--x-2-x-2---2-x--2---2-x-2---2------|
G|-x-x--x-x-4--x-x--4--x-x--x-x--x-x--x-x--x-1-x-1---1-x--1---1-x-1---1------|
D|----------5--x-x--5------------------------2-x-2---2-x--2---2-x-2---2------|
A|----------0-------0--------------------------------------------------------|
E|----------------------------------------------------------0----------------|

e|-x-x--x-x--x-x--x-x--x-0-|-x--x-x--x-x--x-0-|-------0-------0--------------|
B|-x-x--x-x--x-x--x-x--x-0-|-x--x-x--x-x--x-0-|-0-2---0-----2-0-----0--------|
G|-x-x--x-x--x-x--x-x--x-0-|-x--x-x--x-x--x-0-|-0-2---0h1---2-0h1---0--------|
D|-------------------------|------------------|-----2-----2-------2---1------|
A|-------------------------|------------------|-----------------------2------|
E|-------------------------|------------------|------------------------------|

[Solo]
e|-0------2br----------------------------------------------------------------|
B|-0-2-0------2--5--3b-0-----------------------------------------------------|
G|-----------------------2-4-2-4--0-1-2---0h1-------2-0h1---------0-2-0h1----|
D|--------------------------------------2------2-2~--------2-0--2---------2--|
A|---------------------------------------------------------------------------|
E|---------------------------------------------------------------------------|

e|-----------------------------0---------------------------------------------|
B|---------------------0-----0---3p0----------------0-2p0-5--/5--5-5--/5--5-5|
G|---------------------0--2b---------2-0h1------0h1--------------------------|
D|-----------------0-2----------------------2--2-----------------------------|
A|-4p0-------0-1h2-----------------------------------------------------------|
E|-----5b-5------------------------------------------------------------------|

e|--------------------------------------------------------0------------------|
B|-/5--5-5--/5--5-5--/5--5-5--5-8-9-10-10b-8-------8b-----0--5-5--8-8--------|
G|-------------------------------------------9-x-9----9\4--------------------|
D|---------------------------------------------------------------------------|
A|---------------------------------------------------------------------------|
E|---------------------------------------------------------------------------|

e|--------------------------0------------------------------------------------|
B|-10-8--10b-10b-8---8b-----0----------10b-8------8-10b-10rp9----------------|
G|-----------------9----9\4---2-0h1----------9--9-------------9-9------------|
D|----------------------------------2----------------------------------------|
A|---------------------------------------------------------------------------|
E|---------------------------------------------------------------------------|

e|-0-------7-0-5-7---------------------0-------------------------------------|
B|-0-----5---------8-9-5-0---------0-2---7b--5h7p5---5----5------------------|
G|---4/6-------------------3-2-0-1-----------------6----6---4-2-0h1----------|
D|---------------------------------------------------------------------------|
A|---------------------------------------------------------------------------|
E|---------------------------------------------------------------------------|

e|-------------------------------0------0------------------------------0-----|
B|-0-----3-----3-----------------0----0---3p0------------------0-2p0-5-0-2---|
G|---2/4-4-2/4-4--4\2p1---1--------2b---------2b-2b-2rp0---0h1-----------2---|
D|----------------------2---2----------------------------2-------------------|
A|----------------------------2----------------------------------------------|
E|---------------------------------------------------------------------------|

e|-----0-----------12----12--------------------------------0-----------------|
B|-----0--------------12----15b~~~-15rp12-15-12------------0-15b~-----15-----|
G|-0h1------/16-16------------------------------14b-14r-12---------16--------|
D|---------------------------------------------------------------------------|
A|-------2-------------------------------------------------------------------|
E|---------------------------------------------------------------------------|

e|---------------------------------------------------------------------------|
B|----15--x-15-----15----15--------------------------------------------------|
G|-16-----------16----16-----16\14--14-12------------12-14-14b-14rp12--------|
D|----------------------------------------14-12--14--------------------------|
A|---------------------------------------------------------------------------|
E|---------------------------------------------------------------------------|

e|------------------------------------------x-x--0--------12-------14-13p12--|
B|------------------------------------------x-x--0-----12----15-12-----------|
G|----12-14b-12~~-14---------------------9--x-x--0-14b-----------------------|
D|-14----------------14--14-12-----------9-----------------------------------|
A|-----------------------------14-13-12-11-----------------------------------|
E|---------------------------------------------------------------------------|

e|-------x-x-------------------12-0------------------------------------------|
B|-15-12-x-x-15b~~~r-15b-15b~~-12-0-14-12------------------------------------|
G|----------------------------------14-12h13-x-------------------------------|
D|--------------------------------------------x------------------------------|
A|---------------------------------------------14----------------------------|
E|---------------------------------------------------------------------------|

e|--------12-x-x--x-15--15-15-x-12--x-x--x-15--15~--15-15--15-12--x-15--15-15|
B|-----12----x-x--x-12--12-12-x-12--x-x--x-12--12~--12-12--12-12--x-12--12-12|
G|-14b-----------------------------------------------------------------------|
D|---------------------------------------------------------------------------|
A|---------------------------------------------------------------------------|
E|---------------------------------------------------------------------------|

e|-x-12--x-x--x-15--15~--15-15--15-12--x-15--15-15-x-12--x-x--x-15--15--15-12|
B|-x-12--x-x--x-12--12~--12-12--12-12--x-12--12-12-x-12--x-x--x-12--12--12-12|
G|---------------------------------------------------------------------------|
D|---------------------------------------------------------------------------|
A|---------------------------------------------------------------------------|
E|---------------------------------------------------------------------------|

e|-x-15-x-15-15-15-x-12--x-x--x-15--15--15-12--0--------12-------14-12h13p12-|
B|-x----x-12-12-12-x-12--x-x--x-12--12--12-12--0-----12----15-12-------------|
G|-----------------------------------------------14b-------------------------|
D|---------------------------------------------------------------------------|
A|---------------------------------------------------------------------------|
E|---------------------------------------------------------------------------|

e|------------------0--------------------0------0----------------------------|
B|-15-12--12------0---3p0----------------0----0---3p0--------------------0---|
G|-----------14\2---------2b-2b-2r-0-1-----2b---------2b-2rp0---0h1-x----2---|
D|-------------------------------------2----------------------2------x-1-1---|
A|---------------------------------------------------------------------2-2---|
E|---------------------------------------------------------------------------|

                                                                          x2
e|-x-x--x-x--x-x--x-x--x-0-|-x--x-x--x-x--x-0-|-------0-------0-----------0--|
B|-x-x--x-x--x-x--x-x--x-0-|-x--x-x--x-x--x-0-|-0-2---0-----2-0-----0-2---0--|
G|-x-x--x-x--x-x--x-x--x-0-|-x--x-x--x-x--x-0-|-0-2---0h1---2-0h1---0-2---0h1|
D|-------------------------|------------------|-----2-----2-------2-----2----|
A|-------------------------|------------------|------------------------------|
E|-------------------------|------------------|------------------------------|

e|-x-x--x-x--x-x--x-x--x-0-|-x--x-x--x-x--x-0-|-------0-------0---------2----|
B|-x-x--x-x--x-x--x-x--x-0-|-x--x-x--x-x--x-0-|-0-2---0-----2-0-----0---0----|
G|-x-x--x-x--x-x--x-x--x-0-|-x--x-x--x-x--x-0-|-0-2---0h1---2-0h1---0-2------|
D|-------------------------|------------------|-----2-----2-------2---1------|
A|-------------------------|------------------|-----------------------2------|
E|-------------------------|------------------|------------------------------|

e|-x-x--x-x--x-0---x--x-0---x-x--x-x--x-x--x-x--x-0---0---0----0---0---0---0-|
B|-x-x--x-x--x-2---x--x-2---x-x--x-x--x-x--x-x--x-2-x-2---2-x--2---2-x-2---2-|
G|-x-x--x-x--x-1---x--x-1---x-x--x-x--x-x--x-x--x-1-x-1---1-x--1---1-x-1---1-|
D|-------------2--------2-------------------------2-x-2---2-x--2---2-x-2---2-|
A|---------------------------------------------------------------------------|
E|---------------------------------------------------------------0-----------|

e|-x-x--x-x------------x-x--x-x--x-x--x-x--x-0---0---0----0---0---0---0------|
B|-x-x--x-x-5--x-x--5--x-x--x-x--x-x--x-x--x-2-x-2---2-x--2---2-x-2---2------|
G|-x-x--x-x-4--x-x--4--x-x--x-x--x-x--x-x--x-1-x-1---1-x--1---1-x-1---1------|
D|----------5--x-x--5------------------------2-x-2---2-x--2---2-x-2---2------|
A|----------0-------0--------------------------------------------------------|
E|----------------------------------------------------------0----------------|

e|-x-x--x-x--x-x--x-x--x-0-----3--3p2-0--------------9\7--7/9-9\7--7/9-8-7---|
B|-x-x--x-x--x-x--x-x--x-0-----2b-2-----2-0----------9\7--7/9-9\7--7/9-8-7---|
G|-x-x--x-x--x-x--x-x--x-0------------------2-2-0-1--9\7--7/9-9\7--7/9-8-7---|
D|---------------------------------------------------8\6--6/8-8\6--6/8-7-6---|
A|---------------------------------------------------9\7--7/9-9\7--7/9-8-7---|
E|---------------------------------------------------------------------------|

e|---7-7-7---7\--------------------------------------------------------------|
B|---7-7-7---7---------------------------------------------------------------|
G|---7-7-7---7---------------------------------------------------------------|
D|---6-6-6---6---------------------------------------------------------------|
A|-7---------7\--------------------------------------------------------------|
E|---------------------------------------------------------------------------|


************************************

| h   Hammer-on
| p   Pull-off
| r   Release
| b   Bend
| x   Dead note
| br  Bend release
| ~   Vibrato
| /   Slide up
| \   Slide down

************************************
Suggest correction
Give kudos to tab author, rate the tab!
1 2 3 4 5
comments
print report bad tab
guest
You may want to rate the tab now too:
select rating
Wanna post a correction for this tab? Suggest correction