Oops, an error
Loading. Please wait.

Lenny Tab

version 2
version 2

Whole song

Interactive

69,594 views 450 this week
5 commentsread comments
1 2 3 4 5
x 15
add to favorites
×
Save as Personal and add changes to this tab that will be seen only by you. Learn more ›
launch autoscroll
font size
0
reset
how to read this tab
guitar tuner
Autoscroll
slow
fast
+/-
esc
set tempo
stop
Tuning
D# G# C# F# A# D#
Stevie Ray Vaughan: LENNY     
From the album Texas Flood.
Tune down a half-step.

Neck and middle pickups
      w/bar     w/bar       w/bar                                   w/bar
    Emaj7add6   E6     (E)   N.H       S     S      H  P   H      Emaj7add6
D#|-----9------------|-------12----|----------------------------|-----9--------
A#|-----9-------12---|-------12----|---------------9------------|-----9--------
F#|-----8-------13---|-------------|---------------9-11-9---9---|-----8--------
C#|-----9-------11---|-------------|-------------9--------9-11--|-----9--------
G#|-----7------------|-------------|------7-9/11----------------|-----7--------
D#|-------------12---|--0----------|--7/9-----------------------|-0------------

             w/bar
      H                w/bar   S     S     H      H    H           Emaj7add6
D#|-7---------------------------------------------------------|-------9-------
A#|--7-9---7----------5---(5)-----------------9---------------|-------9-------
F#|----------9--------6---(6)---------------9-11-9---9----9---|-------8-------
C#|-------------------4---(4)--------------9-------9-11-9-11--|-------9-------
G#|-------------------------------7-9/11----------------------|-------7-------
D#|-------------5---5-5-------5/9-----------------------------|--0------------

       S                 w/bar     S      S     H  P
D#|-7------------|------------------------------------------------||
A#|---7/9---7----|---------5---X-----------------9----------------||
F#|-----------9--|---------6---X---------------9-11-9-------------||
C#|--------------|---------4---X-------------9--------11-9----9---||
G#|--------------|--------------------9-9/11-------------9-11-----||
D#|--------------|--5---5--5------7/9-----------------------------||

      w/bar
     Emaj7add6        H                w/bar      S     S         H  P
D#|------9---------7-----------|-------------------------------------------|
A#|------9-----------7-9--7----|-------5----5------------------------------|
F#|------8------------------9--|-------6----6--------------------9-11-9----|
C#|------9---------------------|-------4----4---------------9-11--------11-|
G#|------7---------------------|---------------------7-9/11----------------|
D#|-0--------------------------|-5---5-5-------5-7/9-----------------------|

           w/bar                         w/bar
          Emaj7add6     H                 S              S          S    w/bar
D#|----12-----9------7------------|------------------------------||---------
A#|----12-----9--------7-9---7----|-------5\---4------5-----6----||------7--
F#|-----------8----------------9--|-------6\---5--------6/7----7-||-/8---8--
C#|-----------9-------------------|-------4\---3----4------------||----6----
G#|-----------7-------------------|------------------------------||---------
D#|-0------0----------------------|-5---5-5-------5--------------||---------

        w/bar          S       w/bar         w/bar      S   let ring........
D#|------------------|------------------------------------|-----------------
A#|---7-------X------|---------10-----10----------10------|----------3------
F#|------8------8----|---------11------------11-------11\-|-----------------
C#|---------------6--|------9-----------------------------|----2------------
G#|------------------|------------------------------------|-----------------
D#|------------------|-/10---------X------X---------------|-3-----3-----3---

                                        w/bar
   let ring...............................              H   P          H
D#|-----------------------------|------------------------------------------|
A#|--------7----7---------------|---------10-----10-10-10--------10--------|
F#|------8----8----8----8-------|-------X-11-----9--11--9-11-9---9--------7|
C#|----6------------------6--6--|-----9------------------------12--12-7-9--|
G#|-----------------------------|-------------0----------------------------|
D#|-7---------------------------|-10---------------------------------------|

         w/bar                                    w/bar
   let ring........................................     S      H S
D#|-----------------------------|------------------------------------------|
A#|-------3----4-------3--------|---------6-------(5)----------------------|
F#|-------4------4-------4------|------------7-----6-----------------------|
C#|------------------------2----|----5-------------4-----------------------|
G#|-----------------------------|---------------------------7-7-9\---------|
D#|-3---3----3------------------|-6-----6------6---5---5/8-----------------|

        w/bar
        N.H                 S     H P           S      H      H
D#|-----12-----|-------------------------|--------------------------12-9----
A#|-----12-----|--------5----------------|-------------------------------12-
F#|------------|------6------------------|-----------------9-9-11-9---------
C#|------------|----4--------------------|----------9-9-11------------------
G#|------------|---------------7-7-9-7---|-7-9-9/11-------------------------
D#|--0---------|--5--------5/9---------9-|----------------------------------

             H  P                 H  P               H P        S     H
D#|----------------------------|--------------------------------------------|
A#|-9------------------9-------|--------------------------------------------|
F#|---12-11-9-11-9-----9-------|--------------------------------------------|
C#|----------------11----11-9--|-9-11-9-------------------------------------|
G#|----------------------------|--------11-9-11-7-9----------------7-7-9-7--|
D#|----------------------------|--------------------7-9-7-5--5-7/9----------|

                                                               w/bar
          H          S         H        H P            S       H    H      S
D#|--------12-12---12/14--12----7---7--7--------|-7----------------------17\|
A#|-----12-14-12---12/14--12--7-9---9--7-9-7----|-7-9-----------10---10-----|
F#|------------------------------------------9--|---------9-11--9----9------|
C#|---------------------------------------------|-----9/11----9-11-9-11-----|
G#|---------------------------------------------|---------------------------|
D#|-0-------------------------------------------|---------------------------|

          three-quarter
             B       S            B
D#|----15--------------15-17-19-15------------------------------12----------|
A#|-17----17----17--17---------------17----------------------12-------------|
F#|-------------------------------------16\14--12----14-(16)----------------|
C#|-----------------------------------------------14------------------------|
G#|-------------------------------------------------------------------------|
D#|-------------------------------------------------------------------------|

        three-quarter
         B   P             B                   B                     P
D#|----------------------------------------------------12-------------------
A#|-15----15-------12-14-14(15)-12--14----12--------12----15-12-------------
F#|----14----12----12-14-14(16)-12--14----12-14(16)-------------15-14-12----
C#|-------------14---------------------14-----------------------------------
G#|-------------------------------------------------------------------------
D#|-------------------------------------------------------------------------

              w/bar
     P      S  P              S        S  P      S        S
D#|---------------------------|---------------------------------------------|
A#|---------------------------|---------------------------------------------|
F#|----12---------------------|---------------------------------------------|
C#|-14----14-12---------------|----------12---------------------------------|
G#|-------------14\12-10------|-10-12/14----14\12-10--10/11-12-10/11-12-----|
D#|----------------------(12)-|---------------------12------------------0---|

   switch to neck
   and middle pickups                          w/bar       w/bar
         S          N.H  N.H  N.H  N.H  N.H                      S
D#|--------------------|------------------------12-|-------------------------
A#|-------5------------|---------------------------|--------5------5---------
F#|---------6----------|------------------12-------|--------6------6---------
C#|--------------------|---------12----------------|--4-----4------4---------
G#|-----------------7--|---------------------------|--X----------------------
D#|-5----------7/9-----|-0--12-------12------------|--5----------------5/7---

LENNY by STEVIE RAY VAUGHN from TEXAS FLOOD
I cant remember who asked for the tab for Lenny by SRV, but I had some time
to kill today, so here is the basic gist of the song....the solos are not
here, but start in Emaj pentatonic and include brief references to E minor
pentatonic....
oh yeah, I used that TAB MASTER program to do this...

          Emaj 6
    Emaj 7/6
D#|:9-----|-----|---!12!------------------------------------------|
A#|:9-----|-12--|---!12!------------------------------------------|
F#|:8-----|-13--|-------------------------9-H11P9-----------------|
C#|:9-----|-11--|-------------------------9--------11--9-----9----|
G#|:7-----|-----|-----------------7--9/11--------------9-H11-9-H11|
D#|:------|-12--|0-------7--7-H9----------------------------------|

     Emaj 7/6             Amaj 6
D#|:-9-7--------------|------------------------------------------------|
A#|:-9----(7)-H9--7---|------5-----------------------------------------|
F#|:-8---------------9|------6---------------------9H11H9---9-----9----|
C#|:-9----------------|------4-------------------9-------11-9-H11-9-H11|
G#|:-7----------------|-----------------7-(9)/11-----------------------|
D#|:0-----------------|--5-5-5--5-(7)/9--------------------------------|
                                                       
      E maj 7/6           Amaj 6               Bbmaj 6
D#|:----9-7------------|--------------------------------|
A#|:----9----(7)H9--7--|-----5--------5-----------6-----|
F#|:----8-------------9|-----6-----------6-----------7--|
C#|:----9--------------|-----4-----4-----------5--------|
G#|:----7--------------|--------------------------------|
D#|:-0-----------------|-5-5-5--5-----------6-----------|

     Bmaj 6                    D maj 6
D#|:------------------------|--------------------------------|
A#|:--------7-----7---------|-------------10-----10----------|
F#|:-----------8-----8--8---|-----------------11----11--7---7|
C#|:-----6------------------|----------9----------------7H9--|
G#|:------------------------|--------------------------------|
D#|:--7--------------------7|--(7)/10------------------------|

     G maj 6                     Bb maj 6           Amaj 6
D#|:-------------------------|---------------------------------------|
A#|:-------3-----3-----------|----------------6----5-----------------|
F#|:----------4-----4--4-----|-------------7-------6-----------------|
C#|:----2--------------------|----------5----------4-----------------|
G#|:-------------------------|----------------------------------7--9-|
D#|:-3--------------------3--|(3)/6--6-----------6-5--5--(7)/9-------|
             
    Emaj 7/6   
D#|:----9-----|
A#|:----9-----|
F#|:----8-----|
C#|:----9-----|
G#|:----7-----|
D#|:-0--------|
         etc

************************************

| /    Slide up
| P    Pop
| (n)  Ghost note
| \    Slide down 

************************************
Suggest correction
comments
print report bad tab
5 comments total. Showing first comments.
+3 reply
1BADguitarist 10 Jun 28, 2005 08:00 PM

tabs got 5* RobHimself022, u musta got it rong :)

0 reply
Johnljones7443 70 Oct 31, 2006 04:21 PM

Emaj13, not Emajadd6. ;)

0 reply
maggit13 10 Apr 10, 2016 02:10 PM

Great tab, but the Emaj13 should be 99867-

guest
You may want to rate the tab now too:
select rating
Wanna post a correction for this tab? Suggest correction