Oops, an error
Loading. Please wait.

Little Wing Bass Tab

version 1
version 1

Whole song

Interactive

15,258 views 27 this week
no commentswrite comment
1 2 3 4 5
excellent!
x 4
add to favorites
launch autoscroll
font size
0
reset
guitar tuner
Tab Pro tools
  • play this tab
  • loop segment
  • change instrument
  • show fretboard
  • metronome
×
Best way to learn
"Little Wing"
Autoscroll
slow
fast
+/-
esc
set tempo
stop
Contributor
Tuning
D# G# C# F# A# D#
#----------------------------------PLEASE NOTE---------------------------------#
#This file is the author's own work and represents their interpretation of the #
#song. You may only use this file for private study, scholarship, or research. #
#------------------------------------------------------------------------------#

LITTLE WING (Bassline)
As recorded by Stevie Ray Vaughan and Double Trouble
(From the 1991 Album THE SKY IS CRYING)

Transcribed by GibLPCust
	

Music by Jimi Hendrix

Gtr I (Eb Ab Db Gb) - 'Untitled'

 Part One
  Slowly Q=60(16=s16)
 4/4          2/4    4/4
  Gtr I
  Wx8          W      Wx2
|------------|------|--------||
|------------|------|--------||
|------------|------|--------||
|------------|------|--------||


 Part Two
  N.C.(Em7)              (G)                     (Am)
  Q  E  E  S S E S S E   Q  E. S E E S S S  S    E. S Q   E E S S E
|----------------------|-----------------------|--------------------|
|--------------------4-|-5--5----5-5-5-4-5-(5)-|-7--7----/9-7-5h7p5-|
|-7--------7-7-6-7-x---|-------5---------------|--------------------|
|----0-(0)-------------|-----------------------|------5-------------|


  (Em7)
  E  S   S  E.  S  S S S S S S S S
|----------------------------------|
|------------------5p4-------------|
|-7-(7)-(7)----(7)-----7-5-7-5-----|
|-----------0------------------7-5-|


  (Bm7)           (Bb)   (Am7)     (C)
  E. S E. S E S S E. S   Q  E.  S  E E E S S
|----------------------|---------------5-5-5-|
|------9---------------|---------------------|
|----9-----------------|-----------3-3-------|
|-7-------7-7-7-7-6--6-|-5--5--(5)-----------|


  Gadd9 AaGaFadd9      C5               D             DsusDsus2
                      2/4              4/4
  E S S E E E E E. S   E  S   S  E. S   E S S S S S S E E S  S  E
|--------------------|----------------|---------------------------|
|--------------------|----------------|---------------------------|
|-------2-5-----0--2-|-3-(3)-(3)-3--3-|-5-5-5-5-5-5-3-5-5-7-(7)-3-|
|-3-3-3-----1-1------|----------------|---------------------------|


                   Part three
  D                 N.C.(Em7)            (G)
  E  E Q  Q  E E    E E Q  S S E S S E   Q  E. S E E S S E
|----------------||--------------------|-------------------|
|----------------||------------------4-|-5--5----5-5-5-4-5-|
|-5\-----------7-||-7-7----7-7-6-7-x---|-------5-----------|
|----------------||-----0--------------|-------------------|


  (Am7)              (Em7)               (Bm7)     (Bb)
  Q  Q   E E S S E   Q  E E E. S  E. S   Q  Q  E E E. S
|------------------|-------------------|----------------|
|-7-----/9-7-5-7-5-|-------------------|----9-----------|
|------------------|-7------7p(5)h7----|----------------|
|----5-------------|----0-0----------5-|-7-----7-7-6--5-|


  (Am7)   (C)       (G)     (F)       (C)
                                     2/4
  E E E E E E E E   E E E E E E E E   Q  +S  S S  S
|-------------5-5-|-----------------|----------------|
|-----7-7---------|---------3-------|----------------|
|---------3-3-----|-----2-5-----0-2-|-3--(3)-2-3-(3)-|
|-5-5-------------|-3-3-------1-----|----------------|


                                            Part four
  (D)                                        N.C.(Em7)
 4/4
  Q  E.  S  E.  S  S  S  E   E  E Q  H       E. S E. S Q  S S E
|--------------------------|--------------||--------------------|
|--------------------------|--------------||--------------------|
|-5--5--(5)-5--(5)-7-(7)-3-|-5\-----------||-7--7----7-7--7-6-7-|
|--------------------------|--------------||------0-------------|


  (G)                    (Am7)                     (Em7)
  Q  E S S E E S S S S   E  E  E S S S S E S S E   E E Q  S S S S S S S S
|----------------------|-------------------------|------------------------|
|-5--5-----5-5-5-4-5-5-|-7-(7)-7-----7-----------|--------5p4-------------|
|--------5-------------|-----------7---7-------5-|-7-7--------7p5h7-5-----|
|----------------------|-----------------5-5h7---|-----0--------------7-5-|


  (Bm7)         (Bb)      (Am7)     (C)           G       F
  E. S Q  E S S E S  S    E S S E E e E S S S S   E E E E S  S  E E E
|-----------------------|---------------5-5-5---|----------------------|
|------9----------8-----|-------7-7-------------|----------------------|
|----9------------------|-----------3-3-------3-|-----2-5---------0-2--|
|-7----7--7-7-7-6---(6)-|-5-5-5-----------------|-3-3-----1-(0)-1------|


  C             D
 2/4           4/4
  E S S S S E   S S S S S S S S S S E S  S  E   E Q.   H
|-------------|-------------------------------|-------------||
|-------------|-------------------------------|-------------||
|-3-3-3-3-2-3-|-5-5-5-5-5-5-5-5-5-5-5-7-(7)-3-|-7-5---------||
|-------------|-------------------------------|-------------||


 Part five
  N.C.(Em7)               (G)                          (Am7)
  E E Q   a  E  E  E  E    E  E  E.  S  E  E  S S  E    E S S E. S a E E S S E
|-----------------------|----------------------------|-------------------------|
|--------12s14-12-------|----------------------------|-------------7s9-7-5-7-5-|
|-7-7-------------14-12-|-10-10-10-----10-10-10-9-10-|-12-0-0----0-------------|
|-----0-----------------|-----------10---------------|--------5----------------|


  (Em7)             Em        N.C.(Bm7)      (Bb)    (Am7)   (C)
  E S S E E S S S S S S S S   E S S E. S E E S S E   E E E E E E S S E
|---------------------------|----------------------|-------------5-5-5--|
|-----------5p4-------------|-------9------9-----8-|--------------------|
|-7-7-7---------7p5h7-5-----|-----9----9-----------|---------3-3--------|
|-------0-0-------------7-5-|-7-7---7----7---6-6---|-5-5-4-5------------|


  G       F             C     Csus2     D
                       2/4           4/4
  E E E E S  S  E E E   E S S S S E   a E S S S S S S S S S S E S S
|---------------------|-------------|-------------------------------|
|---------------------|-------------|-------------------------------|
|-----2-5---------0-2-|-3-3-3-3-2-3-|-3s5-5-5-5-5-5-5-5-5-5-5-7-3-3-|
|-3-3-----1-(0)-1-----|-------------|-------------------------------|


               Part six
                N.C.(Em7)               G
  H.      Q     E E Q   a  E  E  E  E    E  E  E.  S  E  E  S S  S S
|------------||-----------------------|------------------------------|
|------------||--------12s14-12-------|----------------------------9-|
|-5----------||-7-7-------------14-12-|-10-10-10-----10-10-10-9-10---|
|------------||-----0-----------------|-----------10-----------------|


  N.C.(Am7)                  (Em7)                      (Bm7)              (Bb)
   S  S  E E. S  E E S S E   E S S Q  S S S S S S S S   S  S  S S E. S E E E E
|--------------------------|--------------------------|------------------------|
|---------------/9-7-5-7-5-|----------5-4-------------|-----------9--9---9---8-|
|-12-12-12-0--0------------|-7-7-7--------7-5-7-5-----|---------9-9------------|
|--------------------------|-------0--------------7-5-|-7-(7)-7--------7---6---|


  (Am7)       (C)           G               F         C
                                                     2/4
  E S S S S E E S S S S E   S  S  E S  S  e E E E E   E S S S S S S
|-------------------5-5-5-|-------------------------|----------------|
|-------7-7---------------|-------------------------|----------------|
|-----------0-3-3-3-------|---------2-(2)-5-----0-2-|-3-3-3-3-2-3-3--|
|-5-5-5-------------------|-3-(1)-3---------1-1-----|----------------|


                                           Part seven
  D             D6D DsusDsusD               N.C.(Em7)
 4/4
  E S S S S S S E E S S E   S E. Q  H       E E Q  S S E S S E
|-------------------------|--------------||--------------------|
|-------------------------|--------------||------------------4-|
|-5-5-5-5-5-5-5-5-5-7-x-3-|-5------------||-7-7----7-7-6-7-7---|
|-------------------------|--------------||-----0--------------|


  (G)                 (Am7)                     (Em7)
  Q  E. S E E S S e   E E E E +E  S S S S S S   Q  Q  S S S S S S S S
|-------------------|-------------------------|------------------------|
|-5--5----5-5-5-4-5-|-7-7---------7-5-7-5-----|-------5p4--------------|
|-------5-----------|---------------------7-5-|-7---------7p5-7-5------|
|-------------------|-----5-5-(5)-------------|----0--------------7-5--|


  (Bm7)         (Bb)  (Am7)      (C)          (G)     (F)        (C)
                                                                2/4
  E. S Q  E  E  E E   E E E.  S  E E E.  S    E E E E E E E. S   Q  E. S
|-------------------|----------------5------|------------------|----------|
|------9------------|-----7-----------------|------------------|----------|
|----9--------------|--------(0)-3-3--------|-----2-5-----0--2-|-3--3--3--|
|-7-------7-(7)-6-6-|-5-5---------------(3)-|-3-3-----1-1------|----------|


                                  Part eight
  (D)                              N.C.(Em7)
 4/4
  Q  E. S Q  E E   S E. Q  H       E E Q  S S E S S E
|----------------|--------------||--------------------|
|----------------|--------------||------------------4-|
|-5--5--5-5--7-3-|-5------------||-7-7----7-7-6-7-x---|
|----------------|--------------||-----0--------------|


  (G)                 (Am7)                       (Em7)
  Q  E. S S S E E E   S S S S E E E S S S S S S   E  S   S  E E S S S S S S E
|-------------------|---------------------------|-----------------------------|
|-5--5--------------|---------7-7-9-7-5-7-5-----|-----------------------------|
|-------------------|-------7---------------7-5-|-7-(7)-(7)-----7-7-7-x-7-7---|
|-------3---3-2-3-5-|-5-5-----------------------|-----------0-0-------------5-|


  (Bm7)           (Bb)   (Am7)      (C)       (G)       (F)
  E. S E. S E S S E. S   Q  E S  S  Q  E. S   E E E S S E E E E
|----------------------|--------------------|-------------------|
|------9---------------|----7-7-------------|-------------------|
|----9-----------------|--------(0)-3--3--3-|-----2-5-x-----0-2-|
|-7-------7-7-7-7-6--6-|-5------------------|-3-3-------1-1-----|


                                                   Part nine
  (C)           (D)                                 N.C.(Em7)
 2/4           4/4
  E E S S S S   Q  E. S E  E  E E   S E. Q  H       E E Q   a  E  E  E  E
|-------------|-------------------|--------------||-----------------------|
|-------------|-------------------|--------------||--------12s14-12-------|
|-3-3-3-2-3-3-|-5--5--5-5-(5)-7-3-|-5------------||-7-7-------------14-12-|
|-------------|-------------------|--------------||-----0-----------------|


  G
   E  S  S  E S  S  E  E  S S  S  S
|-----------------------------------|
|-----------------------------------|
|-10-10-10-10------10-10-10-9-10-10-|
|---------------10------------------|


  N.C.(Am7)                 Em
   E  E E  E  S S E S S E   E  E  S S E S S S S S S S S
|-------------------------|-------------------------------|
|-------------7s9-7-5h7p5-|-------------5-4---------------|
|-12-12-0-(0)-------------|-7---------------7-5-7-5-------|
|-------------------------|---(0)-0-0-0-------------7-5---|


  N.C.(Bm7)          (Bb)        (Am7)           (C)
                                                 |-3-|
  E  S  S E.  S  E E S S S  S    S S S S S S S S S S S E +S  S S S
|------------------------------|-----------------------5-(5)-5-5-5--|
|---------9--------9-----------|------------------------------------|
|-------9----(9)---------------|-----------------3-3-3--------------|
|-7-(7)----------7---6-6-6-(6)-|-5---5-5-5---5-5--------------------|


  G         F           C               D            D6  D   DsusDsus2
                       2/4             4/4
  E S S E E S S E E E   E S S S S S S   S  S  E E. S S S S S S S S S
|---------------------|---------------|------------------------------|
|---------------------|---------------|------------------------------|
|-------2-5-------0-2-|-3-3-3-3-2-3-3-|-5-(5)-5-5--5-5-5-5-5-7-7-3-3-|
|-3-x-3-----1-0-1-----|---------------|------------------------------|


                     Part ten
  D                   N.C.(Em7)               (G)
  S S E +Q    H       E E Q   a  E  E  E  E    E  S  S  E.  S  E  E  S S  E
|------------------||-----------------------|-------------------------------|
|------------------||--------12s14-12-------|-------------------------------|
|-5---5-(5)\-------||-7-7-------------14-12-|-10-10-10-10-----10-10-10-9-10-|
|------------------||-----0-----------------|--------------10---------------|


  (Am7)                (Em7)                    (Bm7)          (Bb)
   Q  Q  S S E S S E   E E Q  S S S S S S S S   E S S E. S E E E E
|--------------------|------------------------|--------------------|
|--------7s9-7-5-7-5-|--------5-4-------------|-------9------9---8-|
|-12--0--------------|-7-7--------7-5-7-5-----|--------------------|
|--------------------|-----0--------------7-5-|-7-7-7----7-7---6---|


  (Am7)   (C)               G         F             C
                                                   2/4
            |-3-|
  E E E E E S S S S S S S   E S S E E S S E S S E   E S S S S S S
|-----------5-5-5-5-5-5-5-|-----------------------|---------------|
|-----7-------------------|-----------------------|---------------|
|---------3---------------|-------2-5-------0-0-2-|-3-3-3-3-2-3-3-|
|-5-5---5-----------------|-3-x-3-----1-x-1-------|---------------|


  D        D6  D   DsusDsus2 D
 4/4
  E E E. S S S S S S S S S   S S Q.   +H
|--------------------------|-----------------|
|--------------------------|-----------------|
|-5-5-5--5-5-5-5-5-7-7-3-3-|-5---5----(5)----|
|--------------------------|-----------------|


  N.C.(Em)
  E E E E E E Q    E E S S E E E Q    W
|----------------:------------------:------*|
|-----------5----:-5-5-5-5-5-5-5-5--:------*|
|-5-5-5-5-5------:------------------:------*|
|----------------:------------------:------*|



Duration Legend
---------------
W - whole; H - half; Q - quarter; E - 8th; S - 16th; T - 32nd; X - 64th; a - acciaccatura
+ - note tied to previous; . - note dotted; .. - note double dotted
Uncapitalized letters represent notes that are staccato (1/2 duration)
Irregular groupings are notated above the duration line
Duration letters will always appear directly above the note/fret number it represents the
duration for.  Duration letters with no fret number below them represent rests.  Multi-
bar rests are notated in the form Wxn, where n is the number of bars to rest for.  Low
melody durations appear below the staff

Tablature Legend
----------------
 h   - hammer-on
 p   - pull-off
 b   - bend
 pb  - pre-bend
 r   - bend release (if no number after the r, then release immediately)
 /\  - slide into or out of (from/to "nowhere")
 s   - legato slide
 S   - shift slide
 - natural harmonic
[n]  - artificial harmonic
n(n) - tapped harmonic
 ~   - vibrato
 tr  - trill
 T   - tap
 TP  - trem. picking
 PM  - palm muting
\n/  - tremolo bar dip; n = amount to dip
 \n  - tremolo bar down
 n/  - tremolo bar up
/n\  - tremolo bar inverted dip
 =   - hold bend; also acts as connecting device for hammers/pulls
 <> - volume swell (louder/softer)
 x   - on rhythm slash represents muted slash
 o   - on rhythm slash represents single note slash

Misc Legend
-----------
 |  - bar
||  - double bar
||o - repeat start
o|| - repeat end
*|  - double bar (ending)
 :  - bar (freetime)
 $  - Segno
 &  - Coda
Tempo markers -  = BPM(8/16=s8/s16), where s8 = swing 8ths, s16 = swing 16ths

comments
print report bad tab
I want to post or [tab]
guest
You may want to rate the tab now too:
select rating
Please do not post tabs as comments. Select "correction" instead!