Oops, an error
Loading. Please wait.

Look At Little Sister Bass

version 2
version 2

Whole song

Interactive

331 views 6 this week
no commentswrite comment
1 2 3 4 5
1 last vote to show rating
add to favorites
×
Save as Personal and add changes to this tab that will be seen only by you. Learn more ›
launch autoscroll
font size
0
reset
guitar tuner
Autoscroll
slow
fast
+/-
esc
set tempo
stop
Author
Difficulty
intermediate
Stevie Ray Vaughan 
Look at Little Sister 

Bass Tab

Bassist: Tommy Shannon

Tuning : EADG
Tempo : +/- 150 bpm 
Key: D+

Intro: 00:01 
G|-------------|-
D|- Guitar ----|-
A|---------6~~-|-
E|-------------|-  
Hey, hey, hey, hey, hey 
Mama,

Verse1: 00:04
G|----------5-|----------5-|----------5-|------------|-
D|---5-58- 8--|---5-58--8--|---5-58--8--|---5-5888---|-
A|-6----------|-6----------|-6----------|-6----------|-
E|------------|------------|------------|------------|-
Look at little sis
Out in the backyard, playin' like this, 
Hey, hey, hey, hey, hey, hey,
G|------------|------------|----------5-|----------5-|-
D|----------3-|----------3-|---5-58--8--|---5-58--8--|-
A|---3-36--6--|---3-36--6--|-6----------|-6----------|-
E|-4----------|-4----------|------------|------------|-
                            Look at little sister

G|------------|------------|----------5-|------------|-
D|----------5-|----------3-|---5-58--8--|------8888--|-
A|---5-58--8--|---3-36--6--|-6----------|-6.---------|-
E|-6----------|-4----------|------------|------------|-
Hey hey hey hey,            look at little sister

Verse2: 00:30
G|----------5-|----------5-|----------5-|------------|-
D|---5-58--8--|---5-58--8--|---5-58--8--|---5-5888---|-
A|-6----------|-6----------|-6----------|-6----------|-
E|------------|------------|------------|------------|-
What about the neighbors, what they gonna say
Stop little sister, gettin' carried away

G|------------|------------|----------5-|----------5-|-
D|----------3-|----------3-|---5-58--8--|---5-58--8--|-
A|---3-36--6--|---3-36--6--|-6----------|-6----------|-
E|-4----------|-4----------|------------|------------|-
Hey hey hey, look at little sister

G|------------|------------|----------5-|------------|-
D|----------5-|----------3-|---5-58--8--|------88888-|-
A|---5-58--8--|---3-36--6--|-6----------|-6.---------|-
E|-6----------|-4----------|------------|------------|-
Hey hey hey hey, look at little sister


Chorus1: 00:55
G|------------||-----------||-----------||-----------|-
D|------------||-----------||-----------||-----------|-
A|-6r/--------||-6r/-------||-6r/-------||-6-7-8-9---|-
E|------------||-----------||-----------||-----------|-
Shakin' like a tree, rollin' like a log
Shakin' and a rollin' now, that ain't all

G|------------|------------|----------5-|----------5-|-
D|----------3-|----------3-|---5-58--8--|---5-58--8--|-
A|---3-36--6--|---3-36--6--|-6----------|-6----------|-
E|-4----------|-4----------|------------|------------|-
Hey hey hey, look at little sister

G|------------|------------|----------5.|---8-5------|-
D|----------5-|----------3-|---5-58--8--|-------8g~~-|-
A|---5-58--8--|---3-36--6--|-6----------|------------|-
E|-6----------|-4----------|------------|------------|-
Hey hey hey hey, look at little sister

Instrumental: 01:20 (play X4)
G|----------5-|----------5-||---------5-58--87-6-----|-
D|---5-58--8--|---5-58--8--||---5-58-8-----------8g--|-
A|-6----------|-6----------||-6----------------------|-
E|------------|------------||------------------------|-

G|------------|------------||-----------5-58--85-----|-
D|---------3--|---------3--||---5-58-8-----------8-5-|-
A|---3-36-6---|---3-36-6---||-6----------------------|-
E|-4----------|-4----------||------------------------|-

G|------------|------------||---------5.---8--5------|-
D|----------5-|---------3--||---5-5-8------------8~~-|-
A|---5-58--8--|---3-36-6---||-6----------------------|-
E|-6----------|-4----------||------------------------|-

Final part: 
G|----------5-|----------5-||---------5-58--87-6-----|-
D|---5-58--8--|---5-58--8--||---5-58-8-----------8g--|-
A|-6----------|-6----------||-6----------------------|-
E|------------|------------||------------------------|-

G|------------|------------||-----------5-58--85-----|-
D|----------3-|----------3-||---5-58-8-----------8-5-|-
A|---3-36--6--|---3-36-6---||-6----------------------|-
E|-4----------|-4----------||------------------------|-

G|------------|------------||---------5.---8-85------|-
D|----------5-|----------3-||---5-58-8----------8888-|-
A|---5-58--8--|---3-36--6--||-6----------------------|-
E|-6----------|-4----------||------------------------|-


Chorus2: 03:27
G|------------||-----------||-----------||-----------|-
D|------------||-----------||-----------||-----------|-
A|-6r/--------||-6r/-------||-6r/-------||-6-7-8-9---|-
E|------------||-----------||-----------||-----------|-
Shakin' like a tree, rollin' like a log
Shakin' and a rollin' now, that ain't all

G|------------|------------|----------5-|----------5-|-
D|----------3-|----------3-|---5-58--8--|---5-58--8--|-
A|---3-36--6--|---3-36--6--|-6----------|-6----------|-
E|-4----------|-4----------|------------|------------|-
Hey hey hey, look at little sister

G|------------|------------|----------5-|------------||------||
D|----------5-|----------3-|---5-58--8--|---5-5888~~-||------||
A|---5-58--8--|---3-36--6--|-6----------|-6----------||-6-~~-||
E|-6----------|-4----------|------------|------------||------||
Hey hey hey hey, look at little sister


End: 04:15


Tablature Legend ----------------  
| S  slap 
| P  pop 
| x  mute note 
| .  full stop
| /  slide up 
| \  slide down 
| h  hammer-on 
| p  pull-off 
| g  grace note 
| ~  vibrato 
| ^  brush up
Suggest correction
Give kudos to tab author, rate the tab!
1 2 3 4 5
comments
print report bad tab
guest
You may want to rate the tab now too:
select rating
Wanna post a correction for this tab? Suggest correction