Oops, an error
Loading. Please wait.
We have Chord Pro version of Mary Had A Little Lamb.
It's the closest thing you can get to the original song and it has interactive parts. Check out the tab »
×
524 views 3 this week
1 commentread comment
1 2 3 4 5
2 more votes to show rating
add to favorites
×
Save as Personal and add changes to this tab that will be seen only by you. Learn more ›
×
You can save this tab as Personal to edit and correct it or add notes. All changes will be seen only by you. Learn more »
launch autoscroll
font size
0
reset
guitar tuner
edit
Autoscroll
slow
fast
+/-
esc
set tempo
stop
Author
Difficulty
Stevie Ray Vaughan 
Mary had a little lamb 

Bass Tab
Bassist: Tommy Shannon

Tuning : EADG
Tempo:   122 bpm 
Key:     D+

Intro: 00:01 (Play X2)
G|----------------|-------------5r-|----------------|---------------|-
D|----------------|-----5-6-7-8----|----------------|----5-6h-5-----|-
A|-6-6r------4-4r-|-6r-------------|-6-6r------4-4r-|-6r--------6\3-|-
E|------6-6r------|----------------|------6-6r------|---------------|-
 
G|----------------|----------------|----------------|---------------|-
D|-------------3r-|----------------|----------------|----5-6b-5-----|-
A|----3-3b6-6h----|----3b4h--3-4-5-|-6-6r------4-4r-|-6r--------6-5-|-
E|-4r-------------|-4r-------------|------6-6r------|---------------|-
 
G|----------------|----------------|--------------------||-
D|-------------5r-|-------------3r-|--------------------||-
A|-----5b8-8h-----|----3-3b6-6h----|-6-6r------4-4r--6.-||-
E|-6r-------------|-4g-------------|------6-6r----------||-
                           
Verse1: 00:48
G|----------------|----------------|----------------|---------------|-
D|-------------3r-|----------------|----------------|----5-6b-5-----|-
A|+---3-3b6-6h----|----3b4h--3-4-5-|-6-6r------4-4r-|-6r--------6-5-|-
E|/4r-------------|-4r-------------|------6-6r------|---------------|-
Mary had a little lamb
His fleece was black as coal, yeah
 
G|----------------|----------------|--------------------||-
D|-------------5r-|-------------3r-|--------------------||-
A|-----5b8-8h-----|----3-3b6-6h----|-6-6r------4-4r--6.-||-
E|-6r-------------|-4g-------------|------6-6r----------||-
And everywhere the child went
That little lamb was sure to go now.
 
Verse2: 01:03
G|----------------|----------------|----------------|---------------|-
D|-----------3-4-3|----------------|----------------|----5-6b-5-----|-
A|+---3b6-6h------|----3b4r--3-4-5-|-6-6r------4-4r-|-6r--------6-5-|-
E|/4r-------------|-4r-------------|------6-6r------|---------------|-
He followed her to school one day
Which broke the teachers cool
 
G|----------------|----------------|--------------------||-
D|-------------5r-|-------------3r-|--------------------||-
A|-----5b8-8h-----|----3-3b6-6h----|-6-6r------4-4r--6.-||-
E|-6r-------------|-4g-------------|------6-6r----------||-
But what a time did they have
That day at school.

INSTRUMENTAL: Part1 & 2: 01:19   (play X2)
G|----------------|----------------|----------------|---------------|-
D|-----------3-4-3|----------------|----------------|----5-6b-5-----|-
A|+---3b6-6h------|----3b4r--3-4-5-|-6-6r------4-4r-|-6r--------6-5-|-
E|/4r-------------|-4r-------------|------6-6r------|---------------|-
                                                           
G|----------------|----------------|--------------------||-----------|-
D|-------------5r-|-------------3r-|--------------------||-5-6-5-6---|-
A|-----5b8-8h-----|----3-3b6-6h----|-6-6r------4-4r--6r-||---------3-|-
E|-6r-------------|-4g-------------|------6-6r----------||-----------|-

Part3: 01:51
G|----------------|----------------|----------------|---------------|-
D|-----------3-4-3|----------------|----------------|----5-6b-5-----|-
A|+---3b6-6h------|----3b4r--3-4-5-|-6-6r------4-4r-|-6r--------6-5-|-
E|/4r-------------|-4r-------------|------6-6r------|---------------|-

G|----------------|----------------|--------------------||-
D|-------------5r-|-------------3r-|--------------------||-
A|-----5b8-8h-----|----3-3b6-6h----|-6-6r------4-4r--6.-||-
E|-6r-------------|-4g-------------|------6-6r----------||-

Tisket!
 
Verse2: 02:07
G|----------------|----------------|----------------|---------------|-
D|-----------3-4-3|----------------|----------------|----5-6b-5-----|-
A|+---3b6-6h------|----3b4r--3-4-5-|-6-6r------4-4r-|-6r--------6-5-|-
E|/4r-------------|-4r-------------|------6-6r------|---------------|-
Tasket! baby
A green and yellow basket
 
G|----------------|----------------|--------------------||-
D|-------------5r-|-------------3r-|--------------------||-
A|-----5b8-8h-----|----3-3b6-6h----|-6-6r------4-4r--6.-||-
E|-6r-------------|-4g-------------|------6-6r----------||-
Sooner or later to my baby
And on my way I past it.
 
Outro: 02:22 (play intro)
G|----------------|-------------5r-|----------------|---------------|-
D|----------------|-----5-6-7-8----|----------------|----5-6h-5-----|-
A|-6-6r------4-4r-|-6r-------------|-6-6r------4-4r-|-6r--------6\3-|-
E|------6-6r------|----------------|------6-6r------|---------------|-
 
G|----------------|----------------|----------------|---------------|-
D|-------------3r-|----------------|----------------|----5-6b-5-----|-
A|----3-3b6-6h----|----3b4h--3-4-5-|-6-6r------4-4r-|-6r--------6-5-|-
E|-4r-------------|-4r-------------|------6-6r------|---------------|-
 
G|----------------|----------------|--------------------||-
D|-------------5r-|-------------3r-|--------------------||-
A|-----5b8-8h-----|----3-3b6-6h----|-6-6r------4-4r--6.-||-
E|-6r-------------|-4g-------------|------6-6r----------||- 
                                                                                                End: 02:47



Tablature Legend ----------------  
| S  slap 
| P  pop 
| x  mute note
| .  full stop 
| /  slide up 
| \  slide down 
| h  hammer-on 
| p  pull-off 
| g  grace note 
| ~  vibrato 
| ^  brush up
Suggest correction
Creating personal tab
Creating personal tab
You can edit any tab online and save it as your Personal.

You can edit, replace or remove any tab part or add personal notes – all changes will be seen only by you.

Personal tabs can be accessed anytime from any device, even offline.
Learn more »
Give kudos to tab author, rate the tab!
1 2 3 4 5
comments
print report bad tab
1 comment total.
0 reply
sheila scotty 16 Jun 02, 2015 02:06 PM

Great Tsb again... Five stars well deserved... We'll carry on following your work... It's awesome ! Thanks Mr Frenchy

guest
You may want to rate the tab now too:
select rating
Wanna post a correction for this tab? Suggest correction