Oops, an error
Loading. Please wait.

Pride And Joy Bass

version 3
version 3

Whole song

Interactive

2,003 views 84 this week
no commentswrite comment
1 2 3 4 5
1 last vote to show rating
add to favorites
×
Save as Personal and add changes to this tab that will be seen only by you. Learn more ›
×
You can save this tab as Personal to edit and correct it or add notes. All changes will be seen only by you. Learn more »
save as personal
new!
launch autoscroll
font size
0
reset
guitar tuner
Autoscroll
slow
fast
+/-
esc
set tempo
stop
Author
Difficulty
intermediate
Stevie Ray Vaughan 
PRIDE AND JOY 

Bass Tab

Bassist: Tommy Shannon

Tuning : EADG
Tempo: 116 bpm 
Key: D+

Intro: 00:01 
G|------------------------------------------|-
D|------------------------------------------|-
A|--        Guitar      --------6--4--3-----|-
E|--------------------------------------/-6-|-  

Bass / drums start: 00:05
G|--------55-8-5------||--------55-8-5------|-
D|---55-8---------8-5-||---55-8---------8-5-|-
A|56------------------||56------------------|-
E|--------------------||--------------------|-

G|--------------------||--------55-8-5------|-
D|--------33-6-3------||---55-8---------8-5-|-
A|---33-6---------6-3-||56------------------|-
E|34------------------||--------------------|-

G|------------||------------||--------56--8-5-----|-
D|---------5g-||---------3g-||---55-8----------8g-|-
A|---55--8----||---33-------||56------------------|-
E|56----------||34----------||--------------------|-



Verse1: 00:29
G|------------||------------||------------||---------5g-|-
D|------------||------------||------------||---55--8----|-
A|56-44--3----||56-44--3----||56-44--3----||56----------|-
E|---------6g-||---------6g-||---------6g-||------------|-
Well you've heard about love givin' sight to the blind
My baby's lovin' cause the sun to shine

G|------------||------------||---------55g--8-5------|-
D|---------3g-||---------3g-||---55-8-----------8-5--|-
A|---33-------||---33-------||56---------------------|-
E|34----------||34----------||-----------------------|-
She's my sweet little thing - she's my pride and joy

G|------------||------------||---------56g---8-5-----|-
D|---------5g-||---------3g-||---55-8-------------8g-|-
A|---55--8----||---33--6----||56---------------------|-
E|56----------||34----------||-----------------------|-
She's my sweet little baby - I'm her little lover boy


Verse2: 00:50
G|------------||------------||------------||---------5g-|-
D|------------||------------||------------||---55--8----|-
A|56-44--3----||56-44--3----||56-44--3----||56----------|-
E|---------6g-||---------6g-||---------6g-||------------|-
Yeah I love my baby heart and soul
Love like ours won't never grow old

G|------------||------------||----------55g--8-5------|-
D|---------3g-||---------3g-||----55-8------------8-5-|-
A|---33-------||---33-------||56----------------------|-
E|34----------||34----------||------------------------|-
She's my sweet little thing - she's my pride and joy

G|------------||------------||----------56g--8-5------|-
D|---------5g-||---------3g-||----55-8------------8g--|-
A|---55--8----||---33--6----||56----------------------|-
E|56----------||34----------||------------------------|-
She's my sweet little baby - I'm her little lover boy


Verse3 Stabs: 01:13
G|-----------||-----------||-----------||-------------|-
D|-----------||-----------||-----------||-------------|-
A|56.--------||56.--------||56.--------||-6--7--8--10-|-
E|-----------||-----------||-----------||-------------|-
Yeah I love my lady she's long and lean
You mess with her you'll see a man get mean

G|------------||------------||------------||------------|-
D|56--44--3---||---------3g-||------------||------------|-
A|----------6-||---33--6----||56--44--3---||56--44--3---|-
E|------------||34----------||----------6-||----------6-|-
She's my sweet little thing - she's my pride and joy

G|------------||------------||---------56g----8-5----|-
D|---------5g-||---------3g-||---55-8-------------8g-|-
A|---55--8----||---33--6----||56---------------------|-
E|56----------||34----------||-----------------------|-
She's my sweet little baby - I'm her little lover boy


Instrumental(1): 01:34 Play with impro n' variations...
G|------------||------------||------------||------------|-
D|------------||------------||------------||------------|-
A|56--44--3---||56--44--3---||56--44--3---||56--44--3---|-
E|----------6-||----------6-||----------6-||----------6-|-

G|------------||------------||------------||---------5g-|-
D|56--44-3----||56--44-3----||------------||---55--8----|-
A|----------6-||----------6-||56--44--3---||56----------|-
E|------------||------------||----------6-||------------|-

G|------------||------------||------------||------------|-
D|---------5g-||---------3g-||------------||------------|-
A|---55-8-----||---33-6-----||56--44-3----||56--44-3----|-
E|56----------||34----------||----------6-||----------6-|-

... 

G|------------||------------||------------||---------5g-|-
D|------------||------------||------------||---55--8----|-
A|56--44--3---||56--44--3---||56--44--3---||56----------|-
E|----------6-||----------6-||----------6-||------------|-

G|------------||------------||------------||---------5g-|-
D|---------3g-||---------3g-||------------||---55--8----|-
A|---33--6----||---33--6----||56--44--3---||56----------|-
E|-x----------||-x----------||----------6-||------------|-

G|------------||------------||---------56g----8-5----|-
D|---------5g-||---------3g-||---55-8-------------8g-|-
A|---55--8----||---33--6----||56---------------------|-
E|56----------||34----------||-----------------------|-
 
...

G|----------------55-66-77--||----------------55-66-77--|-
D|---55-66-77-88------------||---55-66-77-88------------|-
A|56------------------------||56------------------------|-
E|--------------------------||--------------------------|-

G|------------||------------||------------||---------5g-|-
D|56--44-3----||56--44-3----||------------||---55-8-----|-
A|----------6-||----------6-||56-44--3----||56----------|-
E|------------||------------||----------6-||------------|-

G|------------||------------||---------56g----8-5----|-
D|---------5g-||---------3g-||---55-8-------------8g-|-
A|---55--8----||---33--6----||56---------------------|-
E|56----------||34----------||-----------------------|-

... 

G|------------||------------||------------||---------5g-|-
D|------------||------------||------------||---55--8----|-
A|56--44--3---||56--44--3---||56--44--3---||56----------|-
E|----------6-||----------6-||----------6-||------------|-

G|------------||------------||------------||---------5g-|-
D|---------3g-||---------3g-||------------||---55--8----|-
A|---33--6----||---33--6----||56--44--3---||56----------|-
E|34----------||34----------||----------6-||------------|-

G|------------||------------||---------56g----8-5----|-
D|---------5g-||---------3g-||---55-8-------------8g-|-
A|---55--8----||---33--6----||56---------------------|-
E|56----------||34----------||-----------------------|-

...

G|------------||------------||---------5g-||---------5g-|-
D|------------||------------||---55--8----||---55--8----|-
A|56--44--3---||56--44--3---||56----------||56----------|-
E|----------6-||----------6-||------------||------------|-

G|------------||------------||------------||---------5g-|-
D|56--44-3----||56--44-3----||------------||---55--8----|-
A|----------6-||----------6-||56--44--3---||56----------|-
E|------------||------------||----------6-||------------|-

G|------------||------------||---------56g----8-5----|-
D|---------5g-||---------3g-||---55-8-------------8g-|-
A|---55--8----||---33--6----||56---------------------|-
E|56----------||34----------||-----------------------|-

...

G|----------------55-66-77--||----------------55-66-77--|-
D|---55-66-77-88------------||---55-66-77-88------------|-
A|56------------------------||56------------------------|-
E|--------------------------||--------------------------|-

G|------------||------------||------------||---------5g-|-
D|56--44-3----||56--44-3----||------------||---55--8----|-
A|----------6-||----------6-||56--44--3---||56----------|-
E|------------||------------||----------6-||------------|-

G|------------||------------||---------56g----8-5----|-
D|---------5g-||---------3g-||---55-8-------------8g-|-
A|---55--8----||---33--6----||56---------------------|-
E|56----------||34----------||-----------------------|-


Verse4 Stabs: 03:43
G|-----------||-----------||-----------||-----------|-
D|-----------||-----------||-----------||-----------|-
A|56.--------||56.--------||56.--------||56--4--3---|-
E|-----------||-----------||-----------||---------6-|-
Well I love my baby like the finest wine
Stick with her until the end of time

G|------------||------------||--------55g-8-5------|-
D|---------3g-||---------3g-||---55-8----------8-5-|-
A|---33-6-----||---33-6-----||56-------------------|-
E|34----------||34----------||---------------------|-
She's my sweet little thing - She's my pride and joy

G|------------||------------||---------56g----8-5----|-
D|---------5g-||---------3g-||---55-8-------------8g-|-
A|---55--8----||---33--6----||56---------------------|-
E|56----------||34----------||-----------------------|-
She's my sweet little baby - I'm her little lover boy


Verse5: 04:04
G|------------||------------||------------||------------|-
D|------------||------------||------------||------------|-
A|56--44--3---||56--44--3---||56--44--3---||56--44--3---|-
E|----------6-||----------6-||----------6-||----------6-|-
Yeah I love my baby heart and soul
Love like ours won't never grow old

G|------------||------------||------------||---------5g-|-
D|56--44-3----||56--44-3----||------------||---55--8----|-
A|----------6-||----------6-||56--44--3---||56----------|-
E|------------||------------||----------6-||------------|-
She's my sweet little thing she's my pride and joy

G|------------||------------||---------56g----8-5----|-
D|---------5g-||---------3g-||---55-8-------------8g-|-
A|---55--8----||---33--6----||56---------------------|-
E|56----------||34----------||-----------------------|-
She's my sweet little baby - I'm her little lover boy


Instrumental(2) / outro: 04:26 Play X1
G|------------||------------||------------||---------5g-|-
D|------------||------------||------------||---55-8-----|-
A|56--44--3---||56--44--3---||56--44--3---||56----------|-
E|----------6-||----------6-||----------6-||------------|-

G|------------||------------||------------||---------5g-|-
D|56--44-3----||56--44-3----||------------||---55--8----|-
A|----------6-||----------6-||56--44--3---||56----------|-
E|------------||------------||----------6-||------------|-

G|------------||------------||---------5-8--5g--------------|-
D|---------5g-||---------3g-||----5-8-----------------------|-
A|---55--8----||---33--6----||-6g---------------66666666r~~-|-
E|56----------||34----------||------------------------------|-

End: 05:04


Tablature Legend ----------------  
| S  slap 
| P  pop 
| x  mute note 
| /  slide up 
| \  slide down
| .  full stop 
| h  hammer-on 
| p  pull-off 
| g  grace note 
| ~  vibrato 
| ^  brush up
Suggest correction
Give kudos to tab author, rate the tab!
1 2 3 4 5
comments
print report bad tab
guest
You may want to rate the tab now too:
select rating
Wanna post a correction for this tab? Suggest correction