Oops, an error
Loading. Please wait.

Riviera Paradise Bass Tab

version 1
version 1

Whole song

Interactive

1,192 views 3 this week
no commentswrite comment
1 2 3 4 5
please rate
add to favorites
launch autoscroll
font size
0
reset
guitar tuner
Tab Pro tools
  • play this tab
  • loop segment
  • change instrument
  • show fretboard
  • metronome
×
Best way to learn
"Riviera Paradise"
Autoscroll
slow
fast
+/-
esc
set tempo
stop
Contributor
Tuning
D# G# C# F# A# D#
#----------------------------------PLEASE NOTE---------------------------------#
#This file is the author's own work and represents their interpretation of the #
#song. You may only use this file for private study, scholarship, or research. #
#------------------------------------------------------------------------------#

RIVIERA PARADISE (Bassline)
As recorded by Stevie Ray Vaughan
(From the 1989 Album IN STEP)

Transcribed by Christopher D. Cuppan
	

Words by - N / A - Music by Stevie Ray Vaughan
Arranged by Stevie Ray Vaughan and Reese Wynans

Gtr I (Eb Ab Db Gb) - 'Tommy Shannon Bass'
Gtr II (B E A D G B) - 'Chris Layton Drums'
Gtr III (B E A D G B) - 'Chris Layton Sizzle Cymbal'

 Introduction
  Rubato (banQ=62cet) Q=74
 4/4
  Gtr I
  W          W          W
|----------|----------|------|
|----------|----------|------|
|----------|----------|------|
|----------|----------|------|


  Q=74
  W          W          W
|----------|----------|------|
|----------|----------|------|
|----------|----------|------|
|----------|----------|------|


                 Theme
  Time In - Slow Ballad Q=58
                  Em9                  Gmaj7
  H.       Q       H.                   E  E
|--------------||----------------------------|
|----------9\--||----------------------------|
|--------------||--------------------------2-|
|----------7\--||--0--------------------3----|
|
| Gtr II
|          <
|          TP
| H.       Q       E   E   e  E  E  E   e  E
|---------29---||-29--29--29-29-29-29--29-29-|
|---------21---||---------21-----------21----|
|--------------||----------------------------|
|--------------||--7--(7)--------7-(7)-------|
|--------------||----------------------------|
|--------------||----------------------------|


  A13    A6                                  Em9                  Gmaj7
   Q     +S  S.     s.  T S.  E   Q           H.                   E  E
|-----------------------2------------------|----------------------------|
|------------------------------------------|--2-------------------------|
|--0-----(0)------------0----[5]-(5)-------|----------------------------|
|------------------/3-------------5\-------|--0--------------------2--3-|
|
|                                 TP
|  E  E   e      E      E     E   S.  t  E    E   E   e  E  E  E   e  E
|-29-29--29-----29-----29----29--29--29-29-|-29--29--29-29-29-29--29-29-|
|--------21--------------------------------|---------21-----------21----|
|--------------------------------14--14----|----------------------------|
|--7-(7)----------------7----(7)-----------|--7--(7)--------7-(7)-------|
|------------------------------------------|----------------------------|
|------------------------------------------|----------------------------|


  A13    A6                    Ab13       Fmaj7
                                           ~~                    ~~~
   Q     +E.    S  S S  E  +S  E.          Q      Q      Q       Q
|------------------2--------------------|------------------------------|
|---------------------------------------|--3------2------0-------------|
|--0-----(0)-------0----0--(0)----------|------------------------3-----|
|---------------3--------------4--------|--1-----(1)----(1)-----(1)----|
|
|                           TP                                   TP
|  E  E   e   E    E    E   S.     t  E    E  E   e   E  E   E   E   e
|-29-29--29--29---29---29--29-----29-29-|-29-29--29--29-29--29--29--29-|
|--------21-----------------------21----|--------21-------------21-----|
|--------------------------14-----14----|------------------------------|
|--7-(7)-----------7---(7)--------------|--7-(7)---------7--(7)--------|
|---------------------------------------|------------------------------|
|---------------------------------------|------------------------------|


  G13    G6                   GbmaFmaj7
          ~~                              ~~~~~~~~~~~~~~~
                       |--3---|
   Q      H            E E    E    Q      Q     Q      Q
|-------------------------------|---------------------------|
|-----------------------------3-|--3------0-----3------2----|
|---------2--------------3------|---------------------------|
|--3-------------------2--------|--1------------------------|
|
|                      TP   TP
|  E  E   e  E  E  E   E    E      E  E   e  E  E  E   e  E
|-29-29--29-29-29-29--29---29---|-29-29--29-29-29-29--29-29-|
|--------21-----------21--------|--------21-----------21----|
|-------------------------------|---------------------------|
|--7-(7)--------7-(7)-----------|--7-(7)--------7-(7)-------|
|-------------------------------|---------------------------|
|-------------------------------|---------------------------|


  G13    G6           Gb13        Ebmaj7
   ~~                                                  ~~
   H            Q      Q           Q      Q     Q      Q
|-------------------------------|--3-------------------3----|
|----------------------4--------|---------------0-----------|
|---------------2------4--------|--1------3-----------------|
|-/3----------------------------|---------------------------|
|
|  E  E   e  E  E  E   S.  t  E    E  E   e  E  E  E   e  E
|-29-29--29-29-29-29--29--29-29-|-29-29--29-29-29-29--29-29-|
|--------21-----------21--------|--------21-----------21----|
|---------------------14--14----|---------------------------|
|--7-(7)--------7-(7)-----------|--7-(7)--------7-(7)-------|
|-------------------------------|---------------------------|
|-------------------------------|---------------------------|


  Gb13         B7+B7b9        Emadd2
                               ~~                 ~
   H            E +Q.          W              Q   H     E   E
|-/3------------2-(2)-------|-------------|-------------------||
|-/2------------------------|-------------|-------2---------0-||
|---------------2-(2)-------|-^7----------|-------------2\----||
|---------------------------|-^0----------|-<12>--0-----------||
|
|                      TP TP                            TP
|  E  E   e  E  E  E   E  E    Q  H.          H.        E   e
|-29-29--29-29-29-29--29-29-|-29----------|------------29--29-||
|--------21-----------21-21-|-------------|----------------21-||
|---------------------------|-14----------|-------------------||
|--7-(7)--------7-(7)-------|--7----------|-------------------||
|---------------------------|-------------|-------------------||
|---------------------------|-------------|-------------------||


 Guitar Solo 1 & Piano Solo
  Em9                         Gmaj7       A13                              Abmaj7
                               ~~~
          |--3--|
   Q      S  S  S  +E   Q      Q           Q     +E.    S  S S  E  +S   E.
|---------------------------------------|------------------2----2--(2)--------|
|--2-----(2)---(2)-(2)------------------|-------------------------------------|
|---------------------------------------|--0-----(0)-------0----0--(0)--------|
|--0------0-----0--(0)--2------3--------|---------------3----3---------h3-----|
|
|  E  E   e         E   E  E   S.  t  E    E  E   e   E    E    E   e       E
|-29-29--29--------29--29-29--29--29-29-|-29-29--29--29---29---29--29------29-|
|--------21-----------------------21----|--------21----------------21---------|
|-----------------------------14--14----|-------------------------------------|
|--7-(7)----------------7-(7)-----------|--7-(7)-----------7---(7)------------|
|---------------------------------------|-------------------------------------|
|---------------------------------------|-------------------------------------|


  Em9                 Gmaj7       A13                Ab13
   ~~                         ~~
   Q      E  E  E  E   E      E    E  E   E  E  E  E  S  S     E
|-------------------------------|--------------------------------|
|--2----------------------------|--------------------------------|
|---------------0--1---2------1-|--2--0--------------------------|
|--0------2--3------------------|---------4--3--2--0--4--2-----0-|
|
|                                               TP
|  E  E   e  E  E  E   S.  t  E    E  E   e  E  E  e  S.    t  E
|-29-29--29-29-29-29--29--29-29-|-29-29--29-29-29-29-29----29-29-|
|--------21---------------21----|--------21----------------21----|
|---------------------14--14----|-----------------14-------------|
|--7-(7)--------7-(7)-----------|--7-(7)--------7----------------|
|-------------------------------|--------------------------------|
|-------------------------------|--------------------------------|


  Fmaj7                       G6                     Gbmaj7
          ~~~~~~~~~~~~~~~             ~~
                                                   |--3---|
   Q      Q     Q      Q       Q      H            E E    E
|---------------------------|-------------------------------|
|--3------0-----3------2----|-----------------------------3-|
|---------------------------|---------2--------------3------|
|--1------------------------|--3-------------------2--------|
|
|  E  E   e  E  E  E   e  E    E  E   e  E  E  E   e    E
|-29-29--29-29-29-29--29-29-|-29-29--29-29-29-29--29---29---|
|--------21-----------21----|--------21-----------21--------|
|---------------------------|-------------------------------|
|--7-(7)--------7-(7)-------|--7-(7)--------7-(7)-----------|
|---------------------------|-------------------------------|
|---------------------------|-------------------------------|


  Fmaj7                          G6                  Gb6
   ~~                    ~~~~~~~~~~~
   Q      Q      Q       Q        H            Q      Q
|------------------------------|---------------------------|
|--3------2------0-------------|---------------------h4----|
|------------------------3-----|---------------2-----h4----|
|--1-----(1)----(1)-----(1)----|-/3------------------------|
|
|  E  E   e   E  E   E   e   E    E  E   e  E  E  E   e  E
|-29-29--29--29-29--29--29--29-|-29-29--29-29-29-29--29-29-|
|--------21-------------21-----|--------21-----------21----|
|------------------------------|---------------------------|
|--7-(7)---------7--(7)--------|--7-(7)--------7-(7)-------|
|------------------------------|---------------------------|
|------------------------------|---------------------------|


  Ebmaj7                      Gb13         B7+B7b9
   ~~
   Q      Q     E  E   Q       Q      Q     E  E   E  E
|---------------------------|---------------------------|
|---------------------------|---------------------------|
|--6------5-----3-----------|---------------2--0--------|
|------------------6---4S===|==2------4------------2S=1-|
|
|                      TP                          TP TP
|  E  E   e  E  E  E   E  e    E  E   e  E  E  E   E  E
|-29-29--29-29-29-29--29-29-|-29-29--29-29-29-29--29-29-|
|--------21-----------21----|--------21-----------21-21-|
|---------------------------|---------------------------|
|--7-(7)--------7-(7)-------|--7-(7)--------7-(7)-------|
|---------------------------|---------------------------|
|---------------------------|---------------------------|


  Emadd9
             ~~~~~             ~~~
   Q   Q     Q  Q     Q   Q    Q   Q
|----------/11-----|---------/11---------||
|----------/11--9--|---------/11---------||
|--7------------7--|-^7------------7\----||
|-(0)--7-----------|-^0---7--------------||
|
|                         <
|                         TP       TP
|  Q   H.             Q   H        E   e
|-29---------------|-----29-------29--29-||
|------------------|------------------21-||
|-14---------------|---------------------||
|--7---------------|---------------------||
|------------------|---------------------||
|------------------|---------------------||


    Em9                 Gmaj7       A13                              Abmaj7
                         |--3---|
     H            Q      Q    S S    Q     +E.    S  S S  E  +S   E.
||--------------------------------|------------------2----2--(2)--------|
||o--2----------------------------|-------------------------------------|
||o-------------------------------|--0-----(0)-------0----0--(0)--------|
||---0------------2------0----2-3-|---------------3----3---------h3-----|
|
|    E  E   e  E  E  E   e  E        E  E   e   E    E    E   e       E
||--29-29--29-29-29-29--29-29-----|-29-29--29--29---29---29--29------29-|
||o--------21-----------21--------|--------21----------------21---------|
||--------------------------------|-------------------------------------|
||---7-(7)--------7-(7)-----------|--7-(7)-----------7---(7)------------|
||o-------------------------------|-------------------------------------|
||--------------------------------|-------------------------------------|


  Em9                 Gmaj7       A13                Ab13
   ~~                         ~~
   Q      E  E  E  E   E      E    E  E   E  E  E  E  S  S     E
|-------------------------------|--------------------------------|
|--2----------------------------|--------------------------------|
|---------------0--1---2------1-|--2--0--------------------------|
|--0------2--3------------------|---------4--3--2--0--4--2-----0-|
|
|                                               TP
|  E  E   e  E  E  E   S.  t  E    E  E   e  E  E  e  S.    t  E
|-29-29--29-29-29-29--29--29-29-|-29-29--29-29-29-29-29----29-29-|
|--------21---------------21----|--------21----------------21----|
|---------------------14--14----|-----------------14-------------|
|--7-(7)--------7-(7)-----------|--7-(7)--------7----------------|
|-------------------------------|--------------------------------|
|-------------------------------|--------------------------------|


  Fmaj7                       G6                     Gbmaj7
          ~~~~~~~~~~~~~~~             ~~
                                                   |--3---|
   Q      Q     Q      Q       Q      H            E E    E
|---------------------------|-------------------------------|
|--3------0-----3------2----|-----------------------------3-|
|---------------------------|---------2--------------3------|
|--1------------------------|--3-------------------2--------|
|
|  E  E   e  E  E  E   e  E    E  E   e  E  E  E   e    E
|-29-29--29-29-29-29--29-29-|-29-29--29-29-29-29--29---29---|
|--------21-----------21----|--------21-----------21--------|
|---------------------------|-------------------------------|
|--7-(7)--------7-(7)-------|--7-(7)--------7-(7)-----------|
|---------------------------|-------------------------------|
|---------------------------|-------------------------------|


  Fmaj7                          G6                  Gb6
   ~~                    ~~~~~~~~~~~
   Q      Q      Q       Q        H            Q      Q
|------------------------------|---------------------------|
|--3------2------0-------------|---------------------h4----|
|------------------------3-----|---------------2-----h4----|
|--1-----(1)----(1)-----(1)----|-/3------------------------|
|
|  E  E   e   E  E   E   e   E    E  E   e  E  E  E   e  E
|-29-29--29--29-29--29--29--29-|-29-29--29-29-29-29--29-29-|
|--------21-------------21-----|--------21-----------21----|
|------------------------------|---------------------------|
|--7-(7)---------7--(7)--------|--7-(7)--------7-(7)-------|
|------------------------------|---------------------------|
|------------------------------|---------------------------|


  Ebmaj7                      Gb13         B7+B7b9
   ~~
   Q      Q     E  E   Q       Q      Q     E  E   E  E
|---------------------------|---------------------------|
|---------------------------|---------------------------|
|--6------5-----3-----------|---------------2--0--------|
|------------------6---4S===|==2------4------------2S=1-|
|
|                      TP                          TP TP
|  E  E   e  E  E  E   E  e    E  E   e  E  E  E   E  E
|-29-29--29-29-29-29--29-29-|-29-29--29-29-29-29--29-29-|
|--------21-----------21----|--------21-----------21-21-|
|---------------------------|---------------------------|
|--7-(7)--------7-(7)-------|--7-(7)--------7-(7)-------|
|---------------------------|---------------------------|
|---------------------------|---------------------------|


  Emadd9
             ~~~~~             ~~~
   Q   Q     Q  Q     Q   Q    Q   Q      3x
|----------/11-----|---------/11----------||
|----------/11--9--|---------/11---------o||
|--7------------7--|-^7------------7\----o||
|-(0)--7-----------|-^0---7---------------||
|
|                         <
|                         TP       TP
|  Q   H.             Q   H        E   e  3x
|-29---------------|-----29-------29--29--||
|------------------|------------------21-o||
|-14---------------|----------------------||
|--7---------------|----------------------||
|------------------|---------------------o||
|------------------|----------------------||


  Slow Ballad - Swing Feel Q=58(16=s16)
  Em9                 Gmaj7       A13                              Abmaj7
                       |--3---|
   H            Q      Q    S S    Q     +E.    S  S S  E  +S   E.
|-------------------------------|------------------2----2--(2)--------|
|--2----------------------------|-------------------------------------|
|-------------------------------|--0-----(0)-------0----0--(0)--------|
|--0------------2------0----2-3-|---------------3----3---------h3-----|
|
|  E  E   e  E  E  E   e  E        E  E   e   E    E    E   e       E
|-29-29--29-29-29-29--29-29-----|-29-29--29--29---29---29--29------29-|
|--------21-----------21--------|--------21----------------21---------|
|-------------------------------|-------------------------------------|
|--7-(7)--------7-(7)-----------|--7-(7)-----------7---(7)------------|
|-------------------------------|-------------------------------------|
|-------------------------------|-------------------------------------|


  Em9                 Gmaj7       A13                Ab13
   ~~                         ~~
   Q      E  E  E  E   E      E    E  E   E  E  E  E  S  S     E
|-------------------------------|--------------------------------|
|--2----------------------------|--------------------------------|
|---------------0--1---2------1-|--2--0--------------------------|
|--0------2--3------------------|---------4--3--2--0--4--2-----0-|
|
|                                               TP
|  E  E   e  E  E  E   S.  t  E    E  E   e  E  E  e  S.    t  E
|-29-29--29-29-29-29--29--29-29-|-29-29--29-29-29-29-29----29-29-|
|--------21---------------21----|--------21----------------21----|
|---------------------14--14----|-----------------14-------------|
|--7-(7)--------7-(7)-----------|--7-(7)--------7----------------|
|-------------------------------|--------------------------------|
|-------------------------------|--------------------------------|


  Fmaj7                       G6                     Gbmaj7
          ~~~~~~~~~~~~~~~             ~~
                                                   |--3---|
   Q      Q     Q      Q       Q      H            E E    E
|---------------------------|-------------------------------|
|--3------0-----3------2----|-----------------------------3-|
|---------------------------|---------2--------------3------|
|--1------------------------|--3-------------------2--------|
|
|  E  E   e  E  E  E   e  E    E  E   e  E  E  E   e    E
|-29-29--29-29-29-29--29-29-|-29-29--29-29-29-29--29---29---|
|--------21-----------21----|--------21-----------21--------|
|---------------------------|-------------------------------|
|--7-(7)--------7-(7)-------|--7-(7)--------7-(7)-----------|
|---------------------------|-------------------------------|
|---------------------------|-------------------------------|


  Fmaj7                          G6                  Gb6
   ~~                    ~~~~~~~~~~~
   Q      Q      Q       Q        H            Q      Q
|------------------------------|---------------------------|
|--3------2------0-------------|---------------------h4----|
|------------------------3-----|---------------2-----h4----|
|--1-----(1)----(1)-----(1)----|-/3------------------------|
|
|  E  E   e   E  E   E   e   E    E  E   e  E  E  E   e  E
|-29-29--29--29-29--29--29--29-|-29-29--29-29-29-29--29-29-|
|--------21-------------21-----|--------21-----------21----|
|------------------------------|---------------------------|
|--7-(7)---------7--(7)--------|--7-(7)--------7-(7)-------|
|------------------------------|---------------------------|
|------------------------------|---------------------------|


  Ebmaj7                      Gb13         B7+B7b9
   ~~
   Q      Q     E  E   Q       Q      Q     E  E   E  E
|---------------------------|---------------------------|
|---------------------------|---------------------------|
|--6------5-----3-----------|---------------2--0--------|
|------------------6---4S===|==2------4------------2S=1-|
|
|                      TP                          TP TP
|  E  E   e  E  E  E   E  e    E  E   e  E  E  E   E  E
|-29-29--29-29-29-29--29-29-|-29-29--29-29-29-29--29-29-|
|--------21-----------21----|--------21-----------21-21-|
|---------------------------|---------------------------|
|--7-(7)--------7-(7)-------|--7-(7)--------7-(7)-------|
|---------------------------|---------------------------|
|---------------------------|---------------------------|


  Emadd9
             ~~~~~             ~~~
   Q   Q     Q  Q     Q   Q    Q   Q
|----------/11-----|---------/11---------||
|----------/11--9--|---------/11---------||
|--7------------7--|-^7------------7\----||
|-(0)--7-----------|-^0---7--------------||
|
|                        Gtr III      Gtrs II, III
|                         <
|  Q   H.             Q   H        E   e
|-29---------------|-----29-------29--29-||
|------------------|------------------21-||
|-14---------------|---------------------||
|--7---------------|---------------------||
|------------------|---------------------||
|------------------|---------------------||


   Guitar Solo 2
    Slow Ballad Q=58
    Em9                 Gmaj7       A13                              Abmaj7
                         |--3---|
     H            Q      Q    S S    Q     +E.    S  S S  E  +S   E.
||--------------------------------|------------------2----2--(2)--------|
||o--2----------------------------|-------------------------------------|
||o-------------------------------|--0-----(0)-------0----0--(0)--------|
||---0------------2------0----2-3-|---------------3----3---------h3-----|
|
|   Gtr II
|    E  E   e  E  E  E   e  E        E  E   e   E    E    E   e       E
||--29-29--29-29-29-29--29-29-----|-29-29--29--29---29---29--29------29-|
||o--------21-----------21--------|--------21----------------21---------|
||--------------------------------|-------------------------------------|
||---7-(7)--------7-(7)-----------|--7-(7)-----------7---(7)------------|
||o-------------------------------|-------------------------------------|
||--------------------------------|-------------------------------------|


  Em9                 Gmaj7       A13                Ab13
   ~~                         ~~
   Q      E  E  E  E   E      E    E  E   E  E  E  E  S  S     E
|-------------------------------|--------------------------------|
|--2----------------------------|--------------------------------|
|---------------0--1---2------1-|--2--0--------------------------|
|--0------2--3------------------|---------4--3--2--0--4--2-----0-|
|
|                                               TP
|  E  E   e  E  E  E   S.  t  E    E  E   e  E  E  e  S.    t  E
|-29-29--29-29-29-29--29--29-29-|-29-29--29-29-29-29-29----29-29-|
|--------21---------------21----|--------21----------------21----|
|---------------------14--14----|-----------------14-------------|
|--7-(7)--------7-(7)-----------|--7-(7)--------7----------------|
|-------------------------------|--------------------------------|
|-------------------------------|--------------------------------|


  Fmaj7                       G6                     Gbmaj7
          ~~~~~~~~~~~~~~~             ~~
                                                   |--3---|
   Q      Q     Q      Q       Q      H            E E    E
|---------------------------|-------------------------------|
|--3------0-----3------2----|-----------------------------3-|
|---------------------------|---------2--------------3------|
|--1------------------------|--3-------------------2--------|
|
|  E  E   e  E  E  E   e  E    E  E   e  E  E  E   e    E
|-29-29--29-29-29-29--29-29-|-29-29--29-29-29-29--29---29---|
|--------21-----------21----|--------21-----------21--------|
|---------------------------|-------------------------------|
|--7-(7)--------7-(7)-------|--7-(7)--------7-(7)-----------|
|---------------------------|-------------------------------|
|---------------------------|-------------------------------|


  Fmaj7                          G6                  Gb6
   ~~                    ~~~~~~~~~~~
   Q      Q      Q       Q        H            Q      Q
|------------------------------|---------------------------|
|--3------2------0-------------|---------------------h4----|
|------------------------3-----|---------------2-----h4----|
|--1-----(1)----(1)-----(1)----|-/3------------------------|
|
|  E  E   e   E  E   E   e   E    E  E   e  E  E  E   e  E
|-29-29--29--29-29--29--29--29-|-29-29--29-29-29-29--29-29-|
|--------21-------------21-----|--------21-----------21----|
|------------------------------|---------------------------|
|--7-(7)---------7--(7)--------|--7-(7)--------7-(7)-------|
|------------------------------|---------------------------|
|------------------------------|---------------------------|


  Ebmaj7                      Gb13         B7+B7b9
   ~~
   Q      Q     E  E   Q       Q      Q     E  E   E  E
|---------------------------|---------------------------|
|---------------------------|---------------------------|
|--6------5-----3-----------|---------------2--0--------|
|------------------6---4S===|==2------4------------2S=1-|
|
|                      TP                          TP TP
|  E  E   e  E  E  E   E  e    E  E   e  E  E  E   E  E
|-29-29--29-29-29-29--29-29-|-29-29--29-29-29-29--29-29-|
|--------21-----------21----|--------21-----------21-21-|
|---------------------------|---------------------------|
|--7-(7)--------7-(7)-------|--7-(7)--------7-(7)-------|
|---------------------------|---------------------------|
|---------------------------|---------------------------|


  Emadd9
             ~~~~~             ~~~
   Q   Q     Q  Q     Q   Q    Q   Q      3x
|----------/11-----|---------/11----------||
|----------/11--9--|---------/11---------o||
|--7------------7--|-^7------------7\----o||
|-(0)--7-----------|-^0---7---------------||
|
|                         <
|                         TP       TP
|  Q   H.             Q   H        E   e  3x
|-29---------------|-----29-------29--29--||
|------------------|------------------21-o||
|-14---------------|----------------------||
|--7---------------|----------------------||
|------------------|---------------------o||
|------------------|----------------------||


 Theme & Outro
  Em9                 Gmaj7       A13                              Abmaj7
                       |--3---|
   H            Q      Q    S S    Q     +E.    S  S S  E  +S   E.
|-------------------------------|------------------2----2--(2)--------|
|--2----------------------------|-------------------------------------|
|-------------------------------|--0-----(0)-------0----0--(0)--------|
|--0------------2------0----2-3-|---------------3----3---------h3-----|
|
|  E  E   e  E  E  E   e  E        E  E   e   E    E    E   e       E
|-29-29--29-29-29-29--29-29-----|-29-29--29--29---29---29--29------29-|
|--------21-----------21--------|--------21----------------21---------|
|-------------------------------|-------------------------------------|
|--7-(7)--------7-(7)-----------|--7-(7)-----------7---(7)------------|
|-------------------------------|-------------------------------------|
|-------------------------------|-------------------------------------|


  Em9                 Gmaj7       A13                Ab13
   ~~                         ~~
   Q      E  E  E  E   E      E    E  E   E  E  E  E  S  S     E
|-------------------------------|--------------------------------|
|--2----------------------------|--------------------------------|
|---------------0--1---2------1-|--2--0--------------------------|
|--0------2--3------------------|---------4--3--2--0--4--2-----0-|
|
|                                               TP
|  E  E   e  E  E  E   S.  t  E    E  E   e  E  E  e  S.    t  E
|-29-29--29-29-29-29--29--29-29-|-29-29--29-29-29-29-29----29-29-|
|--------21---------------21----|--------21----------------21----|
|---------------------14--14----|-----------------14-------------|
|--7-(7)--------7-(7)-----------|--7-(7)--------7----------------|
|-------------------------------|--------------------------------|
|-------------------------------|--------------------------------|


  Fmaj7                       G6                     Gbmaj7
          ~~~~~~~~~~~~~~~             ~~
                                                   |--3---|
   Q      Q     Q      Q       Q      H            E E    E
|---------------------------|-------------------------------|
|--3------0-----3------2----|-----------------------------3-|
|---------------------------|---------2--------------3------|
|--1------------------------|--3-------------------2--------|
|
|  E  E   e  E  E  E   e  E    E  E   e  E  E  E   e    E
|-29-29--29-29-29-29--29-29-|-29-29--29-29-29-29--29---29---|
|--------21-----------21----|--------21-----------21--------|
|---------------------------|-------------------------------|
|--7-(7)--------7-(7)-------|--7-(7)--------7-(7)-----------|
|---------------------------|-------------------------------|
|---------------------------|-------------------------------|


  Fmaj7                          G6                  Gb6
   ~~                    ~~~~~~~~~~~
   Q      Q      Q       Q        H            Q      Q
|------------------------------|---------------------------|
|--3------2------0-------------|---------------------h4----|
|------------------------3-----|---------------2-----h4----|
|--1-----(1)----(1)-----(1)----|-/3------------------------|
|
|  E  E   e   E  E   E   e   E    E  E   e  E  E  E   e  E
|-29-29--29--29-29--29--29--29-|-29-29--29-29-29-29--29-29-|
|--------21-------------21-----|--------21-----------21----|
|------------------------------|---------------------------|
|--7-(7)---------7--(7)--------|--7-(7)--------7-(7)-------|
|------------------------------|---------------------------|
|------------------------------|---------------------------|


                              H.=H
  Ebmaj7                      Gb13         B7+B7b9
   ~~
   Q      Q     E  E   Q       Q      Q     E  E   E      E
|---------------------------|----------------------------------|
|---------------------------|----------------------------------|
|--6------5-----3-----------|---------------2--0---------------|
|------------------6---4S===|==2------4------------2S=====1----|
|
| Gtr II                                          Gtr III
|                                                  |----3----|
|  E  E   e  E  E  E   E  e    E  E   e  E  E  E   E   E     E
|-29-29--29-29-29-29--29-29-|-29-29--29-29-29-29--29-(29)---29-|
|--------21-----------21----|--------21-----------21--21----21-|
|---------------------------|----------------------------------|
|--7-(7)--------7-(7)-------|--7-(7)--------7-(7)--------------|
|---------------------------|----------------------------------|
|---------------------------|----------------------------------|


  Emadd9
    ~~~~         ~~~~~~~                  ~~~
    Q     Q      Q    Q       Q    Q      H
|--------------/11---------|------------/11--------*|
|--------------/11----9----|-------------/9--------*|
|-^-7-----------------7----|--7----------/7--------*|
|-^(0)----7----------------|--0----7------0--------*|
|
| Gtrs Gtr III
|                             >
|   |---3----|   |---3---|    |---3---|   |--3--|
|   Q   Q    Q   Q  Q    Q    Q  Q    Q   Q  Q  Q
|--29--29---29--29-29---29-|-29-29---29--29-29-29--*|
|-----------21----------21-|-21------21--21--------*|
|--------------------------|-----------------------*|
|---7----------------------|-----------------------*|
|--------------------------|-----------------------*|
|--------------------------|-----------------------*|



Duration Legend
---------------
W - whole; H - half; Q - quarter; E - 8th; S - 16th; T - 32nd; X - 64th; a - acciaccatura
+ - note tied to previous; . - note dotted; .. - note double dotted
Uncapitalized letters represent notes that are staccato (1/2 duration)
Irregular groupings are notated above the duration line
Duration letters will always appear directly above the note/fret number it represents the
duration for.  Duration letters with no fret number below them represent rests.  Multi-
bar rests are notated in the form Wxn, where n is the number of bars to rest for.  Low
melody durations appear below the staff

Tablature Legend
----------------
 h   - hammer-on
 p   - pull-off
 b   - bend
 pb  - pre-bend
 r   - bend release (if no number after the r, then release immediately)
 /\  - slide into or out of (from/to "nowhere")
 s   - legato slide
 S   - shift slide
 - natural harmonic
[n]  - artificial harmonic
n(n) - tapped harmonic
 ~   - vibrato
 tr  - trill
 T   - tap
 TP  - trem. picking
 PM  - palm muting
\n/  - tremolo bar dip; n = amount to dip
 \n  - tremolo bar down
 n/  - tremolo bar up
/n\  - tremolo bar inverted dip
 =   - hold bend; also acts as connecting device for hammers/pulls
 <> - volume swell (louder/softer)
 x   - on rhythm slash represents muted slash
 o   - on rhythm slash represents single note slash

Misc Legend
-----------
 |  - bar
||  - double bar
||o - repeat start
o|| - repeat end
*|  - double bar (ending)
 :  - bar (freetime)
 $  - Segno
 &  - Coda
Tempo markers -  = BPM(8/16=s8/s16), where s8 = swing 8ths, s16 = swing 16ths

comments
We did not receive enough feedback on this tab! Please rate:
print report bad tab
1 2 3 4 5
I want to post or [tab]
guest
You may want to rate the tab now too:
select rating
Please do not post tabs as comments. Select "correction" instead!