Oops, an error
Loading. Please wait.

Riviera Paradise Tab

version 1
version 1

Whole song

Interactive

Video

42,949 views 1 this week
6 commentsread comments
1 2 3 4 5
x 8
add to favorites
×
Save as Personal and add changes to this tab that will be seen only by you. Learn more ›
×
You can save this tab as Personal to edit and correct it or add notes. All changes will be seen only by you. Learn more »
save as personal
new!
launch autoscroll
font size
0
reset
how to read this tab
guitar tuner
Autoscroll
slow
fast
+/-
esc
set tempo
stop
GitarVooDo@aol.com
group: Stevie Ray Vaughan
name: Ben
song: Riviera Paradise

                   Riviera Paradise by Stevie Ray Vaughan
                        off the tape In Step.

E|-10---12---10---8--10--8---6---8--6------------|------0------0------------|
B|-10-------------8----------6----------su10---8-|-----0--------0-----------|
G|-10-------------8----------6----------su-9---9-|----0----------0----------|
D|--9-------------7----------5----------su10--10-|---4------------4---------|
A|-----------------------------------------------|--2--------------2--------|
E|-----------------------------------------------|-0----------------0-------|
                                                       drag pick up strings
                                                        right by the bridge
E|-6--8--su12--10-8-7-------------------------------------------------------|
B|-6--------------------10-8-7--5-------7-----7--------10-------10----------|
G|-6---------------------9--------------8-----8--------11-------11----------|
D|-5--------------------10--------------6-----6---------9--------9----------|
A|--------------------------------------------------------------------------|
E|------------------------------------7-----7----7su10-------10-------------|

E|---8---8---8----8--END----|----7--7---------------------------------------|
B|---9---8---8----8-INTRO---|----8--8-----7h8p7------------8--7--7---7------|
G|--10--10---8----9--NEXT---|----7--7-----------7--------7----6--6---6------|
D|--11--11--11---11-VERSE-->|----9--9-------------9----9------5--5---5------|
A|--------------------------|----7--7---7------------7--------X--X---X------|
E|--------------------------|---------------------------------5--5---5------|
                              Emin7                           A

E|--7--7-------------------------------------|---5-------5h6p5-----------5--
B|--8--8----7h8p7-----------8--7--7-----7-6--|---5-------------5-------5----
G|--7--7----------7-------7----6--6-----6-5--|---5-----5---------5---5------
D|--9--9------------9---9------5--5-----5-4--|---3--3--------------3--------
A|--7--7--7-----------7--------X--X-----X-X--|------------------------------
E|-----------------------------5--5-----5-4--|------------------------------
   Emin7                       A          Ab     F(or C9)

E|-----------|--5------5h6p5--------5-----------------|----6------9------7--|
B|-5--5---5--|--5------------5----5-------5----5--5-4-|----8-----11------7--|
G|-4--4---4--|--5----5--------5--5--------4----4--4-3-|----7------9------8--|
D|-3--3---3--|--3--3-----------3----------3----3--3-2-|----8-----11------7--|
A|-X--X---X--|----------------------------X----X--X-X-|----6------9------9--|
E|-3--3---3--|----------------------------3----3--3-2-|------------------7--|
   G           F(orC9)                    G         Gb    Ebmaj7  F#7    B7

E|--------------------------------------------------------------------------|
B|-space------>-----------------------------------------then go-------------|
G|between----->------------------------------------------back to------------|
D|turnaround-->------------------------------------------begining-----------|
A|-and next--->-------------b7--7--------------b7--7-----of chord-----------|
E|--verse----->----0---su7-----------0---su7-------------progression--------|
                            ^
              The bend here |  on the A string. You bend this this a full
      step, hold it  a second and then bring it back down. Do this really
     slow and very smooth. Listen to the tape to get a better idea of what I'm
     saying.
  Well I hope you enjoy it.



************************************

| h  Hammer-on
| p  Pull-off
| b  Bend

************************************
Suggest correction
comments
print report bad tab
6 comments total. Showing first comments.
+1 reply
insanityboy 10 Sep 26, 2002 08:00 PM

First bar should instead be

su9---7
su8---8
su9---9

Third bar should instead be

6--8--su11--9-8-6
6----------------
6----------------
5----------------

Fifth bar should instead be

-7---7---7---7--END----
-8---7---7---7-INTRO---
-9---9---7---8--NEXT---
10--10--10--10-VERSE---

There may well be more, but that's just some to be going on with...

0 reply
mini_b7 71 Jul 31, 2006 12:52 PM

nice!!

0 reply
Audio_bully 10 Jan 27, 2010 02:28 PM

You have have of this thing tabbed in Eb and half of it in standard tuning. It's in E flat.

guest
Wanna post a correction for this tab? Suggest correction