Oops, an error
Loading. Please wait.

Texas Flood Bass

version 2
version 2

Whole song

Interactive

685 views 48 this week
1 commentread comment
1 2 3 4 5
2 more votes to show rating
add to favorites
×
Save as Personal and add changes to this tab that will be seen only by you. Learn more ›
×
You can save this tab as Personal to edit and correct it or add notes. All changes will be seen only by you. Learn more »
save as personal
new!
launch autoscroll
font size
0
reset
guitar tuner
Autoscroll
slow
fast
+/-
esc
set tempo
stop
Author
Difficulty
intermediate
Stevie Ray Vaughan
Texas Flood

Bass Tab
Bassist: Tommy Shannon

Tuning : EADG
Tempo : 174 bpm
Key signature: F+

Intro: 00:01 [Guitar ouverture]
G|-----------------|----------------||-----------------------------------------||-------|-|
D|-------4r----4r--|-4r-------------||----------------------\1--1/4r-----------||-------|-|
A|-2-3-3-----4-----|----4--2r----2r-||-1-2-3------\1--1/4--4----------2-3-4r---||-4-2-4-|-|
E|-----------------|-----------2----||-------2r--2-----------------------------||-------|-|

G|--------------------|--------------------|-|
D|----------------\1r-|-----1--1/4r--------|-|
A|------\1--1/4--4----|-2r-----------1-2-3-|-|
E|-2r--2--------------|--------------------|-|

G|-----------------------------------------||-------------4-2-1--|--------------------|-|
D|----------------\1--1/444-4\2--2\1--1----||----1-1/4r----------|------\1--1/4-1-2-3-|-|
A|------\1--1/4--4---------------------/4r-||-2r-----------------|-2r--2--------------|-|
E|-2r--2-----------------------------------||--------------------|--------------------|-|

G|--------------------|--------------------||-------------6-4-3h-|--------------------|-|
D|----------------\1r-|--------------------||----3--3/6r---------|-----1--1/4---------|-|
A|------\1--1/4--4----|------\1--1/4--1-2-3||-4r-----------------|-2r----------1-2-3--|-|
E|-2r--2--------------|-2r--2--------------||--------------------|--------------------|-|

G|-----------------------------------------||-------|-|
D|-----------------------------------------||-------|-|
A|-------\-1--1-/-2--2-/-3--3-/-4r--2-3-4r-||-4-2-4-|-|
E|-2r--2-----------------------------------||-------|-|

Verse1: 01:03
G|--------------------|--------------------||-----------------------|---------------------|
D|-4r--4\2--2\1--1/---|--------------------||-----------------1-4-1-|---------------4-2-1-|
A|-----------------4r-|--------------------||------\1--1/4r-4-------|------\1--1/4r-------|
E|--------------------|-7r--7\5--5\4--4\2r-||-2r--2-----------------|-2r--2---------------|
Well there's floodin' down in Texas
All of the telephone lines are down

G|--------------4-2-1-|--------------------||-----------------------|---------------------|
D|------\1--1\4-------|------\1--1\4--1-2-3||-----------------1-4-1-|---------------------|
A|-2r--2--------------|-2r--2--------------||------\1--1/4--4h------|------\1--1/4--1-2-3-|
E|--------------------|--------------------||-2r--2-----------------|-2r--2---------------|
Well there's floodin' down in Texas
All of the telephone lines are down

G|-------------6-4-3h-|--------------------|-|
D|----3--3/6r---------|-----1--1/4---------|-|
A|-4r-----------------|-2r----------1-2-3--|-|
E|--------------------|--------------------|-|
And I've been tryin' to call my baby
Lord and I can't get a single sound

G|-----------------------------------------||-------|-|
D|-----------------------------------------||-------|-|
A|-------\-1--1-/-2--2-/-3--3-/-4r--2-3-4r-||-4-2---|-|
E|-2r--2-----------------------------------||-----2-|-|

Verse2: 01:53
G|--------------------|--------------------||-----------------------|---------------------|
D|-4r--4\2--2\1--1/---|--------------------||-----------------1-4-1-|---------------4-2-1-|
A|-----------------4r-|--------------------||------\1--1/4r-4-------|------\1--1/4r-------|
E|--------------------|-7r--7\5--5\4--4\2r-||-2r--2-----------------|-2r--2---------------|
Well dark clouds are rollin' in
Man I'm standin' out in the rain

G|--------------4-2-1-|--------------------||-----------------------|---------------------|
D|------\1--1\4-------|------\1--1\4--1-2-3||-----------------1-4-1-|---------------------|
A|-2r--2--------------|-2r--2--------------||------\1--1/4--4h------|------\1--1/4--1-2-3-|
E|--------------------|--------------------||-2r--2-----------------|-2r--2---------------|
Well dark clouds are rollin' in
Man I'm standin' out in the rain

G|-------------6-4-3h-|--------------------|-|
D|----3--3/6r---------|-----1--1/4---------|-|
A|-4r-----------------|-2r----------1-2-3--|-|
E|--------------------|--------------------|-|
Yeah flood water keep a ro-o-o-ollin'
Man it's about to drive poor me insane

G|-----------------------------------------||-------|-|
D|-----------------------------------------||-------|-|
A|-------\-1--1-/-2--2-/-3--3-/-4r--2-3-4r-||-4-2---|-|
E|-2r--2-----------------------------------||-----2-|-|

Instrumental: 02:44 play verse x 2
G|--------------------|--------------------||-----------------------|---------------------|
D|-4r--4\2--2\1--1/---|--------------------||-----------------1-4-1-|---------------4-2-1-|
A|-----------------4r-|--------------------||------\1--1/4r-4-------|------\1--1/4r-------|
E|--------------------|-7r--7\5--5\4--4\2r-||-2r--2-----------------|-2r--2---------------|

G|--------------4-2-1-|--------------------||-----------------------|---------------------|
D|------\1--1\4-------|------\1--1\4--1-2-3||-----------------1-4-1-|---------------------|
A|-2r--2--------------|-2r--2--------------||------\1--1/4--4h------|------\1--1/4--1-2-3-|
E|--------------------|--------------------||-2r--2-----------------|-2r--2---------------|

G|-------------6-4-3h-|--------------------|-|
D|----3--3/6r---------|-----1--1/4---------|-|
A|-4r-----------------|-2r----------1-2-3--|-|
E|--------------------|--------------------|-|

G|-----------------------------------------||-------|-|
D|-----------------------------------------||-------|-|
A|-------\-1--1-/-2--2-/-3--3-/-4r--2-3-4r-||-4-2---|-|
E|-2r--2-----------------------------------||-----2-|-|


Verse3 / outro: 04:23
G|--------------------|--------------------||-----------------------|---------------------|
D|-4r--4\2--2\1--1/---|--------------------||-----------------1-4-1-|---------------4-2-1-|
A|-----------------4r-|--------------------||------\1--1/4r-4-------|------\1--1/4r-------|
E|--------------------|-7r--7\5--5\4--4\2r-||-2r--2-----------------|-2r--2---------------|
Well I'm leavin' you baby
Lord and I'm goin' back home to stay

G|--------------4-2-1-|--------------------||-----------------------|---------------------|
D|------\1--1\4-------|------\1--1\4--1-2-3||-----------------1-4-1-|---------------------|
A|-2r--2--------------|-2r--2--------------||------\1--1/4--4h------|------\1--1/4--1-2-3-|
E|--------------------|--------------------||-2r--2-----------------|-2r--2---------------|
Well I'm leavin' you baby
Lord and I'm goin' back home to stay

G|-------------6-4-3h-|--------------------|-|
D|----3--3/6r---------|--------------------|-|
A|-4r-----------------|-2.-----------------|-|
E|--------------------|--------------------|-|
Well back home are no floods or tornados
Baby and the sun shines every day

G|------------------------------------||-------|-|
D|------------------------------------||-------|-|
A|-------\-1--1-/-2--2-/-3--3-/-4rrr--||-------|-|
E|-2r--2------------------------------||--2~~~-|-|


End: 05:21

Tablature Legend ----------------
| S  slap
| P  pop
| x  mute note
| /  slide up
| \  slide down
| h  hammer-on
| p  pull-off
| g  grace note
| ~  vibrato
| ^  brush up
Suggest correction
Give kudos to tab author, rate the tab!
1 2 3 4 5
comments
print report bad tab
1 comment total.
0 reply
sheila scotty 16 Feb 06, 2016 05:46 AM

Good work there Mister ! Great tab worth a 5 stars rating no doubt.

guest
You may want to rate the tab now too:
select rating
Wanna post a correction for this tab? Suggest correction