Oops, an error
Loading. Please wait.

The Sky Is Crying Tab

version 2
version 2

Whole song

Interactive

26,961 views 138 this week
3 commentsread comments
1 2 3 4 5
x 7
add to favorites
launch autoscroll
font size
0
reset
how to read this tab
guitar tuner
Autoscroll
slow
fast
+/-
esc
set tempo
stop
Author
e|--------13b---13--11--------------------|--8~-----------------------|
B|---------------------13~---11-8---------|---------------------------|
G|--------------------------------10b-----|---------------------------|
D|----------------------------------------|---------------------------|
A|----------------------------------------|---------------------------|
E|----------------------------------------|---------------------------|

e|----------13b---------------|--11--------11--------------------------|
B|----------------------------|-----13~--------13------11~---11~-------|
G|----------------------------|--------------------12------------------|
D|----------------------------|----------------------------------------|
A|----------------------------|----------------------------------------|
E|----------------------------|----------------------------------------|

e|--------13b---13--11--------------------|--8~-----------------------|
B|---------------------13~---11-8---------|---------------------------|
G|--------------------------------10b-----|---------------------------|
D|----------------------------------------|---------------------------|
A|----------------------------------------|---------------------------|
E|----------------------------------------|---------------------------|

e|----------11b---11b------11b----|
B|--------------------------------|
G|--------------------------------|
D|--------------------------------|
A|--------------------------------|
E|--------------------------------|

e|---8~-------------------------8-----------------11--|
B|---------11h8-----------------------------------11--|
G|--------------10r-8----8h10b----8~--------------12--|
D|--------------------10--------------10h8------------|
A|-----------------------------------------10-11------|
E|--------------------------------------------11------|

e|----------------------------|--20/-----------------------|
B|--10~-----------------------|--20/-----------------------|
G|--10~-----------------------|----------------------------|
D|--9~------------------------|----------------------------|
A|----------------------------|----------------------------|
E|----------------------------|----------------------------|
                
e|----------11b---11b---8---8-11-8~---|--8/------------------------------------|
B|------------------------8-----------|----------------------------------------|
G|------------------------------------|----------------------10~---10----------|
D|------------------------------------|----------------------------------------|
A|------------------------------------|------------8--9-10-------------10~-----|
E|------------------------------------|------3/12/-----------------------------|
     
e|--------------------8------------|--8~------------------------|
B|---------------------------------|-----8----------------------|
G|--------------10b---------8h10~--|----------------------------|
D|---------------------------------|----------------------------|
A|---------------------------------|----------------------------|
E|-----------------------8---------|----------------------------|
 
e|----------13b---------------|--11--------11----------------------------|
B|----------------------------|-----13~--------13------11~---11~-11~-----|
G|----------------------------|--------------------12--------------------|
D|----------------------------|------------------------------------------|
A|----------------------------|------------------------------------------|
E|----------------------------|------------------------------------------|

e|--------------13b-11-----------------|--8~-----------------------|
B|---------------------13~--11-8-------|---------------------------|
G|-------------------------------10b---|---------------------------|
D|-------------------------------------|---------------------------|
A|-------------------------------------|---------------------------|
E|-------------------------------------|---------------------------|
     
e|--------11b-------11b---11b-----|--8------------------------------8/---10/11-|
B|--------------------------------|----8~---8-11h8------------------8/---10/11-|
G|--------------------------------|----------------10r-10r-10r-8~--------10/11-|
D|--------------------------------|--------------------------------------------|
A|--------------------------------|--------------------------------------------|
E|--------------------------------|--------------------------------------------|

e|--------------------------20/-|--8/-----------------------|
B|--10~---------------------20/-|--8/-----------------------|
G|--10~-------------------------|---------------------------|
D|------------------------------|---------------------------|
A|------------------------------|---------------------------|
E|------------------------------|---------------------------|

e|----13b----13b------11b------11-------|
B|--------------------------13----13~---|
G|--------------------------------------|
D|--------------------------------------|
A|--------------------------------------|
E|--------------------------------------|

e|--11b-------------------------------11-13b----|
B|------------11------11~-11~---13-13-----------|
G|--------12------12----------------------------|
D|----------------------------------------------|
A|----------------------------------------------|
E|----------------------------------------------|

e|--13b---13b-13b-11---------------11b-------|
B|-------------------13-13~--13~-------------|
G|-------------------------------------------|
D|-------------------------------------------|
A|-------------------------------------------|
E|-------------------------------------------|

e|------------11-13b---13b13b-------------------|
B|------13-13----------------13-13~-------13h11-|
G|----------------------------------------------|
D|----------------------------------------------|
A|----------------------------------------------|
E|----------------------------------------------|

e|--13r--13b-----11b-------11b---13b---|
B|-------------------------------------|
G|-------------------------------------|
D|-------------------------------------|
A|-------------------------------------|
E|-------------------------------------|
 
e|------------11--13b---11b-11---------------------|
B|--13~---13~------------------13~--13~---13-13h11-|
G|-------------------------------------------------|
D|-------------------------------------------------|
A|-------------------------------------------------|
E|-------------------------------------------------|

e|--13b--------13b--11~-----------|
B|--------------------------------|
G|--------------------------------|
D|--------------------------------|
A|--------------------------------|
E|--------------------------------|

e|------------11-13b--13b-13b11-------------------|
B|------13-13-------------------13~---13~---13-13-|
G|------------------------------------------------|
D|------------------------------------------------|
A|------------------------------------------------|
E|------------------------------------------------|

e|--13r-------11b---8-------------------|
B|-----------------------11h8-----------|
G|----------------------------10r-8~--0-|
D|--------------------------------------|
A|--------------------------------------|
E|--------------------------------------|

e|--------8-------------------------------------------|
B|----------8-11-8------------------------------------|
G|--10b------------10b-10b-10h8--------------8--10b---|
D|------------------------------10-10~-10-10----------|
A|----------------------------------------------------|
E|----------------------------------------------------|

e|-------8h10-10--9h8-------8------------------------------------------|
B|--8h10b--------------11-8---11-8-----------------8-------------------|
G|---------------------------------10b10h8----8-10---8-----------------|
D|-----------------------------------------10----------10h8------------|
A|----------------------------------------------------------10-9-8-----|
E|-----------------------------------------------------------------11b-|

e|--------8---8---8---8---8-----------11--13b---|
B|----------8---8---8---8---8-11/13~------------|
G|--10b-----------------------------------------|
D|----------------------------------------------|
A|----------------------------------------------|
E|----------------------------------------------|

e|--11----------------11----------------|
B|-----13~----13~--------13~----13~-----|
G|--------------------------------------|
D|--------------------------------------|
A|--------------------------------------|
E|--------------------------------------|

e|--11--------11----------------------11-13b----|
B|-----13~--------13------11~---13-13-----------|
G|--------------------12------------------------|
D|----------------------------------------------|
A|----------------------------------------------|
E|----------------------------------------------|

e|--13b-------11b---------11b-------|----13r-----12r---12b11-------------------|
B|--13b-------------13~-------------|----13r-----12r---12b---13~-13~-----13-11-|
G|----------------------------------|----13r-----------------------------------|
D|----------------------------------|------------------------------------------|
A|----------------------------------|------------------------------------------|
E|----------------------------------|------------------------------------------|

e|--13b-----------------------|----11b-----11b---11b-----11b---13b-|
B|----------------------------|------------------------------------|
G|----------------------------|------------------------------------|
D|----------------------------|------------------------------------|
A|----------------------------|------------------------------------|
E|----------------------------|------------------------------------|

e|--13b-11-------11----------8------8-10-9h8------11b-----11b---|
B|---------13~------15h11------8-11b---------11b8---------------|
G|------------------------12------------------------------------|
D|--------------------------------------------------------------|
A|--------------------------------------------------------------|
E|--------------------------------------------------------------|

e|--8-11-8~---11h8-------------------------8--------------------------|
B|------------11h8-----------------------8---11h8------------------11-|
G|-----------------10b-10b-10h8----8-10b----------11h10h8----8-11-----|
D|------------------------------10------------------------10----------|
A|--------------------------------------------------------------------|
E|--------------------------------------------------------------------|

e|---------------------------8---------11/13------11-------|
B|-----------------------------8-11/13---------13----13~---|
G|--10h9----9----------10b---------------------------------|
D|-------10---10h8-----------------------------------------|
A|-----------------10--------------------------------------|
E|---------------------------------------------------------|

e|--11b-----12b-----------------11b---12b-|----12b---12b-13r---13~---------13r-|
B|------------------13~---13-13-----------|------------------------------------|
G|----------------------------------------|------------------------------------|
D|----------------------------------------|------------------------------------|
A|----------------------------------------|------------------------------------|
E|----------------------------------------|------------------------------------|

e|------11r---13b--12b---13b---11------------|
B|--------------------------------13~--13-13-|
G|-------------------------------------------|
D|----0--------------------------------------|
A|-------------------------------------------|
E|-------------------------------------------|

e|--11b-----8~----------------------------|
B|---------------11h8---------------------|
G|--------------------10b10h8~---8--------|
D|---------------------------------10~----|
A|----------------------------------------|
E|----------------------------------------|

e|--8/---------------------------------------|----------------------------|
B|--8/---------------------------------------|----------------------------|
G|--8/-----------------------10------10------|--------------------10b-----|
D|--8/-5-------------------------------------|----------------------------|
A|-------------10-10--9-10-------------------|----------------------------|
E|--------6/11-------------------------------|----------------------------|

e|--8------------------------|--------------8------8-11/13------11-------|
B|---------------------------|--------11b-----8-11-----------13----13~---|
G|---------------------------|-------------------------------------------|
D|---------------------------|-------------------------------------------|
A|---------------------------|-------------------------------------------|
E|---------------------------|-------------------------------------------|

e|--11b-------13b--11-8~-----8--8----|------------------------13b-|
B|-----------------------------------|----------------------------|
G|-----------------------------------|----------------------------|
D|-----------------------------------|----------------------------|
A|-----------------------------------|----------------------------|
E|-----------------------------------|----------------------------|

e|--11--------------------------|----------------8~--------------|
B|-----13~----------------------|------11b-----------------------|
G|------------------------------|-----------------------10r-8----|
D|------------------------------|--------------------------------|
A|------------------------------|--------------------------------|
E|------------------------------|--------------------------------|

e|----------8-------------------10/11-10--|------------------------20/---|
B|--11b-------------------------10/11-10--|--10~-------------------20/---|
G|--x------------10r-8r---------10/11-10--|--10~-------------------------|
D|------------------------10~-------------|--9~--------------------------|
A|----------------------------------------|------------------------------|
E|----------------------------------------|------------------------------|

e|---------------------------|------11b---11b---8-11-8~----------------|
B|--8------------------------|----------------------------11h8---------|
G|--8------------------------|---------------------------------10b-10b-|
D|--7------------------------|-----------------------------------------|
A|---------------------------|-----------------------------------------|
E|---------------------------|-----------------------------------------|

e|------------4------3------------|----------3--3~-----------------||
B|------------4------3------------|--------3----3~-----------------||
G|--8---------4------3------------|------3------3~-----------------||
D|------------3------2------------|----2--------2~-----------------||
A|-----10-------------------------|--------------------------------||
E|---------4----------------------|--3-----------------------------||


************************************

| b  Bend
| ~  Vibrato
| h  Hammer-on
| r  Release
| /  Slide up
| x  Dead note

************************************
Suggest correction
comments
print report bad tab
3 comments total.
0 reply
jasonrud 10 Dec 11, 2005 03:18 PM

great tab man

0 reply
JTRipper 10 Mar 16, 2006 11:23 AM

no chords

0 reply
dwarfcar21 441 Mar 21, 2009 05:34 PM

perfect!

guest
You may want to rate the tab now too:
select rating
Wanna post a correction for this tab? Suggest correction