Oops, an error
Loading. Please wait.

Voodoo Chile Slight Return Bass

version 1
version 1

Whole song

Interactive

18,496 views 3 this week
3 commentsread comments
1 2 3 4 5
x 5
add to favorites
launch autoscroll
font size
0
reset
guitar tuner
Autoscroll
slow
fast
+/-
esc
set tempo
stop
"VOODOO CHILE"
AS DONE BY STEVIE RAY VAUGHN
TABBED BY FRANKMAN
THIS TAB WILL ALSO WORK WITH JIMI HENDIX'S VERSION

INTRO
rest
,

G|---------------------|
D|---------------------| play 10 times
A|---------------------|
E|-0-0-0-3-0-0-0-0-0-0-|


VERSE (riff 1)

G|-----------------------|
D|-----------2---------2-|
A|-----------------------|
E|-0-0-0-3p0---0-0-3p0---|


                         (riff 2)

G|-----------------------------------------------------------------------------|
D|-----------------------------------------------------------------------------|
A|---2-3-4-5-7-8-9---4-5-6-7-9-10-11-------------------------------------------|
E|-3---------------5-----------------0-0-0-3-0-0-0-0-0-0-0-0-0-3-0-0-0-0-0-0-0-|


                          (riff 3)

G|-----------------------------------------------------|
D|---5---5---5---5-7---7---7---7-----------------------|
A|-3---3---3---3-----5---5---5---5---------------------|
E|---------------------------------0-0-0-3-0-0-0-0-0-0-|


FOR THE GUITAR SOLO PLAY RIFF 1 OF THE VERSE.

THIS IS A VARIATION THAT IS PLAYED IN THE GUITAR SOLO.

G|-----------------------------------------------|
D|-----------2-0-2p0-----------------2---------2-|
A|-------------------2p0-------------------------|
E|-0-0-0-3p0-------------3-0-0-0-3p0---0-0-3p0---|

NOTE: WHEN PLAYING THIS SONG YOU MUST HIT THE STRINGS ON THE UP AND
DOWN STROKES TO GET IT TO FLOW RIGHT.
Suggest correction
comments
print report bad tab
3 comments total.
0 reply
jcwear 91 Sep 16, 2004 08:00 PM

BRILL!!

This is what I've been looking for, it's for the bassist in my band, I found one which was too confusing, but this is great!
Nice one

0 reply
House Cat 10 Mar 02, 2009 11:44 AM

Look at my freakin stuff!

0 reply
danger pay 50 Feb 02, 2014 09:15 AM

Well done, This will help a lot!!!! Thank you

guest
You may want to rate the tab now too:
select rating
Wanna post a correction for this tab? Suggest correction