Oops, an error
Loading. Please wait.

Happy Birthday bass

64 views 15 this week
no commentswrite comment
1 2 3 4 5
2 more votes to show rating
add to favorites
×
Save as Personal and add changes to this tab that will be seen only by you. Learn more ›
×
You can save this tab as Personal to edit and correct it or add notes. All changes will be seen only by you. Learn more »
launch autoscroll
font size
0
reset
guitar tuner
edit
Autoscroll
slow
fast
+/-
esc
set tempo
stop
** I am referencing this recording, https://www.youtube.com/watch?v=Qwscb3QIVSg , to write this tab. 
This was kinda diffucult, would appreciate some corrections over time. I'm certain this at least 95% 
accurate as of the original revision date. 

[Intro]
  1  2  3 + a 4 +  1 + a 2   3   4   1  2  3 + a 4 +   1 + a 2   3  a 4   1  a 2  3 + a 4 +  1 + a 2   3  a 4 
g|---5------------|--5-7-5----------|---3-------------|--3-5-3-----------|---1-2------------|--2-5-2---------|
d|----------------|-----------------|-----------------|------------------|------------------|----------------|
a|3-------------3-|--------------3--|1--------------1-|-------------0-1--|0---------------0-|-------------4-5|
E|------5---3-----|----------3------|------3---3 -----|----------1-------|--------1---0-----|----------0-----|

  1  2  3 e + a 4 e +  1  +  2   3   4
g|--------------------|----------------|
d|---5--2-3---2-------|---5--5---------|
a|----------------5---|----------------|
E|3-----------------3-|----------1---3-|

[Verse 1]
  1  2  3 + a 4 +  1 + a 2   3   4   1  2  3 + a 4 +   1 + a 2   3  a 4   1  a 2  3 + a 4 +  1 + a 2   3  a 4 
g|---5------------|--5-7-5----------|---3-------------|--3-5-3-----------|---1-2------------|--2-5-2---------|
d|----------------|-----------------|-----------------|------------------|------------------|----------------|
a|3-------------3-|--------------3--|1--------------1-|-------------0-1--|0---------------0-|-------------4-5|
E|------5---3-----|----------3------|------3---3 -----|----------1-------|--------1---0-----|----------0-----|
 
  1  2  3 e +   4   +  1  +  2  +  3 e +   4 e +
g|--------------------|--------------------------|
d|---5--2-3-2---------|---5-----3--------------5-|
a|--------------------|----------------5---3-5---|
E|3-----------------3-|------1-----3-5-----------|

  1  2  3 + a 4 +  1 + a 2   3   4   1  2  3 + a 4 +   1 + a 2   3  a 4   1  a 2  3 + a 4 +  1 + a 2   3  a 4
g|---5------------|--5-7-5----------|---3-------------|--3-5-3-----------|---1-2------------|--2-5-2---------|
d|----------------|-----------------|-----------------|------------------|------------------|----------------|
a|3-------------3-|--------------3--|1--------------1-|-------------0-1--|0---------------0-|-------------4-5|
E|------5---3-----|----------3------|------3---3 -----|----------1-------|--------1---0-----|----------0-----|

  1 e +  2 e +  3 e +  4 e +  1 e +   2  +  3 e +   4 
g|----0--0-2-0------0--0-2-0-|--------------------------|
d|0-2-----------0-2----------|----5---5---------5---5---|
a|---------------------------|--5-------------5---------|
E|---------------------------|3-------------3-----------|

[Pre-Chorus]
  1  +  2  +  3     1  +  2  +  3     1  +  2  +  3     1  2  3  4 
g|-----------------|0-----------0----|-----------------|-----------|
d|3--0-----0--3----|---2--0--2-------|3--0-----0--3----|-----------|
a|------3----------|-----------------|------3----------|-----------|
E|-----------------|-----------------|-----------------|3--3--3--3-|

[Chorus]
  1  2  3 + 4 +  1 + a 2   3   4                 1 +   2  +  3  e   +   a   4   e   +   a     
g|--------------|--5-7-5---------|--------------|---------------12--10--9------------------|
d|--------------|----------7---5-|--------------|--10--10-------------------12--10--9------|
a|3--3--0-----3-|----------------|3--3--0-----3-|---------------------------------------12-|
E|--------3-----|----------------|---------3----|------------------------------------------|

  1  2  3 + 4 +  1 + a 2   3   4                          3 + 4 + 
g|--------------|--5-7-5---------|--------------|--5-7-5----5---5-|
d|--------------|----------7---5-|--------------|-----------------|
a|------------3-|----------------|3--3--0-----3-|-----------------|
E|8--8--5---3---|----------------|---------3----|-----------------|

[Verse 2]
  1  2  3 + a 4 +  1 + a 2   3   4   1  2  3 + a 4 +   1 + a 2   3  a 4   1  a 2  3 + a 4 +  1 + a 2   3  a 4
g|---5------------|--5-7-5----------|---3-------------|--3-5-3-----------|---1-2------------|--2-5-2---------|
d|----------------|-----------------|-----------------|------------------|------------------|----------------|
a|3-------------3-|--------------3--|1--------------1-|-------------0-1--|0---------------0-|-------------4-5|
E|------5---3-----|----------3------|------3---3 -----|----------1-------|--------1---0-----|----------0-----|
 
  1  2  3 e +   4   +  1  +  2  +  3 e +   4 e +
g|--------------------|--------------------------|
d|---5--2-3-2---------|---5-----3--------------5-|
a|--------------------|----------------5---3-5---|
E|3-----------------3-|------1-----3-5-----------|

  1  2  3 + a 4 +  1 + a 2   3   4   1  2  3 + a 4 +   1 + a 2   3  a 4   1  a 2  3 + a 4 +  1 + a 2   3  a 4
g|---5------------|--5-7-5----------|---3-------------|--3-5-3-----------|---1-2------------|--2-5-2---------|
d|----------------|-----------------|-----------------|------------------|------------------|----------------|
a|3-------------3-|--------------3--|1--------------1-|-------------0-1--|0---------------0-|-------------4-5|
E|------5---3-----|----------3------|------3---3 -----|----------1-------|--------1---0-----|----------0-----|

  1 e +  2 e +  3 e +  4 e +  1 e +   2  +  3 e +   4 
g|----0--0-2-0------0--0-2-0-|--------------------------|
d|0-2-----------0-2----------|----5---5---------5---5---|
a|---------------------------|--5-------------5---------|
E|---------------------------|3-------------3-----------|

[Pre-Chorus] 
  1  +  2  +  3     1  +  2  +  3     1  +  2  +  3     1  2  3  4 
g|-----------------|0-----------0----|-----------------|-----------|
d|3--0-----0--3----|---2--0--2-------|3--0-----0--3----|-----------|
a|------3----------|-----------------|------3----------|-----------|
E|-----------------|-----------------|-----------------|3--3--3--3-|

[Chorus]
  1  2  3 + 4 +  1 + a 2   3   4                 1 +   2  +  3  e   +   a   4   e   +   a     
g|--------------|--5-7-5---------|--------------|---------------12--10--9------------------|
d|--------------|----------7---5-|--------------|--10--10-------------------12--10--9------|
a|3--3--0-----3-|----------------|3--3--0-----3-|---------------------------------------12-|
E|--------3-----|----------------|---------3----|------------------------------------------|

  1  2  3 + 4 +  1 + a 2   3   4                 1 +   2  +  3  e  +  a  4  e  +  a
g|--------------|--5-7-5---------|--------------|--5-7-5--------7--5--4-------------|
d|--------------|----------7---5-|--------------|------------------------7--5--4----|
a|------------3-|----------------|3--3--0-----3-|---------------------------------7-|
E|8--8--5---3---|----------------|---------3----|-----------------------------------| 

[Bridge]
 1  2  a 3   4   1  2   3  4  1  2   a 3  4 
g|---------------|------------|--------------|------------|-----------|
d|------5-7------|------------|--------------|------------|-----------|
a|5-----------3--|5---------5-|-------5-7----|5---------5-|-------5-7-|
E|---------------|-------5----|5-------------|-------5----|5----------|
                 1  2   3 e +  4 e + a  1  2  3  4 +   
g|---------------|----------------------|-------------|--------|-----------|-----------|
d|------5-7------|----------------------|-------------|--------|-----------|-----------|
a|5-----------3--|5------5-4-3--2-0-----|-------------|--------|3----------|3----------|
E|---------------|--------------------3-|4-----4----5-|6-------|-----------|-----------|

[Verse 3]
  1  2  3 + a 4 +  1 + a 2   3   4   1  2  3 + a 4 +   1 + a 2   3  a 4   1  a 2  3 + a 4 +  1 + a 2   3  a 4
g|---5------------|--5-7-5----------|---3-------------|--3-5-3-----------|---1-2------------|--2-5-2---------|
d|----------------|-----------------|-----------------|------------------|------------------|----------------|
a|3-------------3-|--------------3--|1--------------1-|-------------0-1--|0---------------0-|-------------4-5|
E|------5---3-----|----------3------|------3---3 -----|----------1-------|--------1---0-----|----------0-----|
 
  1  2  3 e +   4   +  1  +  2  +  3 e +   4 e +
g|--------------------|--------------------------|
d|---5--2-3-2---------|---5-----3--------------5-|
a|--------------------|----------------5---3-5---|
E|3-----------------3-|------1-----3-5-----------|

  1  2  3 + a 4 +  1 + a 2   3   4   1  2  3 + a 4 +   1 + a 2   3  a 4   1  a 2  3 + a 4 +  1 + a 2   3  a 4
g|---5------------|--5-7-5----------|---3-------------|--3-5-3-----------|---1-2------------|--2-5-2---------|
d|----------------|-----------------|-----------------|------------------|------------------|----------------|
a|3-------------3-|--------------3--|1--------------1-|-------------0-1--|0---------------0-|-------------4-5|
E|------5---3-----|----------3------|------3---3 -----|----------1-------|--------1---0-----|----------0-----|

  1 e +  2 e +  3 e +  4 e +  1 e +   2  +  3 e +   4 
g|----0--0-2-0------0--0-2-0-|--------------------------|
d|0-2-----------0-2----------|----5---5---------5---5---|
a|---------------------------|--5-------------5---------|
E|---------------------------|3-------------3-----------|

[Pre-Chorus] 
  1  +  2  +  3     1  +  2  +  3     1  +  2  +  3     1  2  3  4 
g|-----------------|0-----------0----|-----------------|-----------|
d|3--0-----0--3----|---2--0--2-------|3--0-----0--3----|-----------|
a|------3----------|-----------------|------3----------|-----------|
E|-----------------|-----------------|-----------------|3--3--3--3-|

(Key change)

[Chorus]
  1  2  3 + 4 +  1 + a 2   3   4                 1 +   2  +  3  e   +   a   4   e   +   a     
g|--------------|--6-8-6---------|--------------|---------------13--11--10-----------------|
d|--------------|----------8---6-|--------------|--11--11-------------------13--11--10-----|
a|4--4--------4-|----------------|4--4--------4-|---------------------------------------13-|
E|------6-4-----|----------------|------6-4-----|------------------------------------------|

  1  2  3 + 4 +  1 + a 2   3   4                 1 +   2  +  3  e  +  a  4  e  +  a
g|--------------|--6-8-6---------|--------------|--6-8-6--------6--4--3-------------|
d|--------------|----------8---6-|--------------|------------------------6--4--3----|
a|------------4-|----------------|4--4--------4-|---------------------------------6-|
E|9--9--6---4---|----------------|------6--4----|-----------------------------------|   

  1  2  3 + 4 +  1 + a 2   3   4                 1 +   2  +  3  e  +  a  4  e  +  a  
g|--------------|--6-8-6---------|--------------|--6-8-6--------6--4--3-------------|
d|--------------|----------8---6-|--------------|------------------------6--4--3----|
a|4--4--------4-|----------------|4--4--------4-|---------------------------------6-|
E|------6-4-----|----------------|------6-4-----|-----------------------------------|  

  1  2  3 + 4 +  1 + a 2   3   4                 1 +   2  +  3  e  +  a  4  e  +  a
g|--------------|--6-8-6---------|--------------|--6-8-6--------6--4--3-------------|
d|--------------|----------8---6-|--------------|------------------------6--4--3----|
a|------------4-|----------------|4--4--------4-|---------------------------------6-|
E|9--9--6---4---|----------------|------6--4----|-----------------------------------|   

[Verse 3] (x3)
  1  2  3 + a 4 +  1 + a 2   3   4   1  2  3 + a 4 +   1 + a 2   3  a 4   1  a 2  3 + a 4 +  1 + a 2   3  a 4
g|---6------------|--6-8-6----------|---4-------------|--4-6-4-----------|---2-3------------|--3-6-3---------|
d|----------------|-----------------|-----------------|------------------|------------------|----------------|
a|4-------------4-|--------------4--|2--------------2-|-------------1-2--|1---------------1-|-------------5-6|
E|------6---4-----|----------4------|------4---4------|----------2-------|--------2---1-----|----------1-----|
 
  1  2  3 e +   4   +  1  +  2  +  3 e +   4 e +
g|--------------------|--------------------------|
d|---6--3-4-3---------|---6-----4--------------6-|
a|--------------------|----------------6---4-6---|
E|4-----------------4-|------2-----4-6-----------|

  1  2  3 + a 4 +  1 + a 2   3   4   1  2  3 + a 4 +   1 + a 2   3  a 4   1  a 2  3 + a 4 +  1 + a 2   3  a 4
g|---6------------|--6-8-6----------|---4-------------|--4-6-4-----------|---2-3------------|--3-6-3---------|
d|----------------|-----------------|-----------------|------------------|------------------|----------------|
a|4-------------4-|--------------4--|2--------------2-|-------------1-2--|1---------------1-|-------------5-6|
E|------6---4-----|----------4------|------4---4------|----------2-------|--------2---1-----|----------1-----|

  1  2  3 e +   4   +  1  +  2  +  3 e +   4 e +
g|--------------------|--------------------------|
d|---6--3-4-3---------|---6-----4--------------6-|
a|--------------------|----------------6---4-6---| 
E|4-----------------4-|------2-----4-6-----------|

            
            
Suggest correction
Creating personal tab
Creating personal tab
You can edit any tab online and save it as your Personal.

You can edit, replace or remove any tab part or add personal notes – all changes will be seen only by you.

Personal tabs can be accessed anytime from any device, even offline.
Learn more »
Give kudos to tab author, rate the tab!
1 2 3 4 5
comments
print report bad tab
guest
You may want to rate the tab now too:
select rating
Wanna post a correction for this tab? Suggest correction