Oops, an error
Loading. Please wait.
We have an official Isnt She Lovely tab made by UG professional guitarists. Check out the tab »
×
37,902 views 27 this week
4 commentsread comments
1 2 3 4 5
x 10
add to favorites
×
Save as Personal and add changes to this tab that will be seen only by you. Learn more ›
×
You can save this tab as Personal to edit and correct it or add notes. All changes will be seen only by you. Learn more »
launch autoscroll
font size
0
reset
guitar tuner
backing track
0:00
0:00
edit
Autoscroll
slow
fast
+/-
esc
set tempo
stop
Author
Unregistered
G|-17---17---17---17--|-17---17---17---17--|-17---17---16---16--|
D|-17---17---17---17--|-16---16---16---16--|-15---15---15---15--|
A|--------------------|-5-------5----------|-5------------------|
E|-5-------5----------|--------------------|---------3----------|
  q+e     h+e    q+e     h+e    q+e     h+e

G|-17---17--------|    |-17---17------------|
D|-14---14--------|*   |-14---14------------|
A|-3--------------|*   |-3-------3---5---7--|
E|---------0---3--|    |--------------------|
  h q   q   h |--3-h--|
     
G|-14---14---14---14--|-13---13---13---13--|-17---17---17---17--|
D|-14---14---14---14--|-12---12---12---12--|-17---17---17---17--|
A|-8-------8----------|-7-------7----------|--------------------|
E|--------------------|--------------------|-5-------5----------|
 q+e     h+e    q+e     h+e    q+e     h+e

G|-17---17---17---17--|-17---17---17---17--|-17---17---16---16--|
D|-16---16---16---16--|-15---15---15---15--|-15---15---15---15--|
A|-5-------5----------|-5-------5----------|--------------------|
E|--------------------|--------------------|-3-------3----------|
 q+e     h+e    q+e     h+e    q+e     h+e

G|-17-----------------2-5-|-5---5--|
D|-14-------------2-5-----|--------|
A|-3----------3-5---------|--------|
E|------R-3-5-------------|--------|
 |-3-| |-3-| |-3-|
  qq     q     q


************************************

| h  Hammer-on

************************************

            
            
Suggest correction
Creating personal tab
Creating personal tab
You can edit any tab online and save it as your Personal.

You can edit, replace or remove any tab part or add personal notes – all changes will be seen only by you.

Personal tabs can be accessed anytime from any device, even offline.
Learn more »
comments
print report bad tab
4 comments total. Showing first comments.
0 reply
Delboy_360 10 Dec 06, 2007 09:41 AM

It was OK, not too sure tho

0 reply
zeppelin42 60 Mar 10, 2008 04:41 PM

Sorry, but no.

0 reply
Muser00 1,083 Jun 07, 2015 04:51 PM

didn't like this contribution

guest
Wanna post a correction for this tab? Suggest correction