Oops, an error
Loading. Please wait.

Isnt She Lovely Tab

version 3
version 3

Whole song

Interactive

Video

85 views 18 this week
no commentswrite comment
1 2 3 4 5
3 more votes to show rating
add to favorites
launch autoscroll
font size
0
reset
how to read this tab
guitar tuner
Autoscroll
slow
fast
+/-
esc
set tempo
stop
Help us to improve Ultimate-Guitar.com Take our survey!
×
Author
Difficulty
intermediate
Stevie Wonder: Isn't she Wonderful 
By Nat Glenn  
Inspired by this video:

https://www.youtube.com/watch?v=3YYrKbzm4WE&list=PL82lZ3JKx0abGJct-Jd-gCQx7kd-Ye4UW&index=1

[Background Chord Progression]
e|-------------------------------|------------------------|
B|-----9-----9-9-------9-----9-9-|-------------------9--9-|
G|-----9-----9-9-------9-----9-9-|----6-----6-6------8--8-|
D|-----9-----9-9-------8-----8-8-|----7-----7-7------9--9-|
A|----------------8h9-----9------|--------------6/7-----7-|
E|--9-----9----------------------|-7-----7----------------|

e|---------------------------------|--------------------------|-----------------------------|
B|-------9-----9-9-------9-----9-9-|-------------------9--9---|----5-----5-5----------6--5--|
G|-------9-----9-9-------9-----9-9-|----6-----6-6------8--8---|----6-----6-6-----5----5--5--|
D|-------9-----9-9-------8-----8-8-|----7-----7-7------9--9---|----6-----6-6-----4----4--4--|
A|------------------8h9-----9------|--------------6/7-----7---|------------------6----------|
E|-7h8/9-----9---------------------|-7-----7------------------|-5-----5-------4-------4--4--|

e|-------------------------------|------------------------------|------------------------------||
B|-----9-----9-9-------9-----9-9-|------------------------------|-9----------------------------||
G|-----9-----9-9-------9-----9-9-|----6-----6-6-----6-6-----6-6-|-8--------------6h9--9--------||
D|-----9-----9-9-------8-----8-8-|----7-----7-7-----7-7-----7-7-|-9----------6h9---------------||
A|----------------8h9-----9------|------------------------------|-7------7h9-------------------||
E|--9-----9----------------------|-7-----7-------7-------7------|----7h9-----------------------||

[Solo/Melody]
e|----------------------------------|--------------------------------------------|
B|-9-10-9--------9-10-9-------------|-9-10-9-----------------9-10-9--------------|
G|--------11--9---------11--9-------|--------11--9----9h11p9--------11--9--------|
D|----------------------------9h11-9|--------------11---------------------9h11-9-|
A|----------------------------------|--------------------------------------------|
E|----------------------------------|--------------------------------------------|

e|-------------------------------|----------------------------------------|-------------9h12--12----||
B|-9-10-12-12---9-10-12-10---9-9-|9------------9---9-10-9-----------------|---------9h12------------||
G|-------------------------------|--11-9-11--9------------11--9---------9-|-----9h11----------------||
D|-------------------------------|-------------------------------11--9----|-9h11--------------------||
A|-------------------------------|----------------------------------------|-------------------------||
E|-------------------------------|----------------------------------------|-------------------------||



************************************

| h  Hammer-on
| /  Slide up
| p  Pull-off

************************************
Suggest correction
Give kudos to tab author, rate the tab!
1 2 3 4 5
comments
print report bad tab
guest
You may want to rate the tab now too:
select rating
Wanna post a correction for this tab? Suggest correction