Oops, an error
Loading. Please wait.

Isnt She Lovely Chords

version 6
version 6
48,380 views 102 this week
no commentswrite comment
1 2 3 4 5
excellent!
x 2
add to favorites
launch autoscroll
font size
0
reset
transpose
0
reset
simplify chords
- display chords -
guitar tuner
Tab Pro tools
  • play this tab
  • loop segment
  • change instrument
  • show fretboard
  • metronome
Autoscroll
slow
fast
+/-
esc
set tempo
stop
Difficulty
novice
Isn't She Lovely
Chords by Bllurry
This is the most basic way of playing this music.
This is not how the guitar plays it live.
This is just for you to get in touch with the harmony.
Feel free to send some comments to Bllurry@hotmail.com
Enjoy!

     C#m7     F#7     B7      E
e:|-- 4 --|-- 2 --|-- 2 --|-- 0 ---------|
B:|-- 5 --|-- 2 --|-- 4 --|-- 0 ---------|
G:|-- 4 --|-- 3 --|-- 2 --|-- 1 ---------|
D:|-- 6 --|-- 2 --|-- 4 --|-- 2 --|  |A--|
A:|-- 4 --|-- 4 --|-- 2 --|-- 2 ---------|
E:|-- x --|-- 2 --|-- x --|-- 0 ---------|

     Amaj7    Am6     Gm7
e:|-- 5 --|-- 5 --|-- 4 --------------|
B:|-- 5 --|-- 7 --|-- 4 --------------|
G:|-- 6 --|-- 5 --|-- 4 --|       |B--|
D:|-- 6 --|-- 7 --|-- 4 --------------|
A:|-- 7 --|-- 0 --|-- 6 --------------|
E:|-- 5 --|-- x --|-- 4 --------------|....

Then the Riff Goes:

T-      3       4     1 2            3       4     1 2
e:|-----------------------|    |-----------------------|
B:|-----------------------|    |-----------------2-5-5-|
G:|-----------------------|    |-----------1-4---------|
D:|-----------6-9---6-9-9-| or |-----2---4-------------|
A:|-----7---9-------------|    |-2-4-------------------|
E:|-7-9-------------------|    |-----------------------|

The T letter stands for tempo... because the riff is not made on the first down beat(1 
in a 4/4 measure), instead is made in the middle of the 2/3.
The hole song has kind of a triplet feel so make sure you bare that in mind while playing.

So here's the structure of the song:
It goes |A| 2 times then |B + A| and at E you just play once on the 1 then Riff!

That's all folks
Thanks
comments
We did not receive enough feedback on this tab! Please rate:
print report bad tab
1 2 3 4 5
I want to post or [tab]
guest
You may want to rate the tab now too:
select rating
Please do not post tabs as comments. Select "correction" instead!