Oops, an error
Loading. Please wait.

Overjoyed chords

version 3
version 3

Interactive

43,517 views 99 this week
4 commentsread comments
1 2 3 4 5
x 18
add to favorites
×
Save as Personal and add changes to this tab that will be seen only by you. Learn more ›
×
You can save this tab as Personal to edit and correct it or add notes. All changes will be seen only by you. Learn more »
launch autoscroll
font size
0
reset
transpose
0
reset
simplify chords
display chords
guitar tuner
edit
Autoscroll
slow
fast
+/-
esc
set tempo
stop
Author
Difficulty
intermediate
Strumming
There is no strumming pattern for this song yet. and get +5 IQ
    ____________________
   / Stevie Wonder     /
  / Overjoyed         /
 / In Square Circle  /
/___________________/


[Intro]

(This piano part just happens to suit guitar very well.)
 Db6             C7               Cbmaj7          C7
|--------------------------------|--------------------------------|
|--------------------------------|--------------------------------|
|3---------3-----3---------3-----|3---------3-----3-------------3-|
|3-----3---------2-----2---------|1-----1---------2-----2---4-6---|
|4---4---------4-3---3---------3-|2---2---------2-3---3-----------|
|--------------------------------|--------------------------------|

 Db6             C7               Cbmaj7          Bb
|--------------------------------|--------------------------------|
|--------------------------------|----------------------3-------4-|
|3---------3-----3---------3-----|3---------3-----3---------3-----|
|3-----3---------2-----2---------|1-----1-------0-0---------------|
|4---4---------4-3---3---------3-|2---2-----------1---------------|
|--------------------------------|--------------------------------|


[Verse]

| Eb(add2) | Cm7 | Fm7*| Bb7 |

| Eb(add2) | Cm7 | F/A | G/B |

| C(add2)  C6 | G/B | Cm7  F7 | Bb9 |


   a wonderful fill is played in these two bars
   Fm7*                             Bb7
  |----------------3---------------|--------------------------------|
  |----------------------6---4---64|3---------3---------------------|
  |--------------------------------|------5-------3-----------------|
  |--------------------------------|--------------------------------|
  |--------------------------------|--------------------------------|
  |--------------------------------|--------------------------------|


[Verse]

[Chorus]
| Abmaj7  Ab6 | Eb(add2)/G  Eb/G | Fm7  Bb7 | Dbmaj7  C |

| Bbmaj7  Bb6 | F(add2)/A  Bb/Ab | Fm7 | Bb7sus4  Bb7 |


[Intro]


 Chorus + | C7sus4 | C7 |



 Final Chorus:
| Bbmaj7  Bb6 | F(add2)/A  F/A | Gm7  C7 | Ebmaj7  D |

| Cmaj7  C6 | G(add2)/B  C/Bb | Gm7 | C7sus4  C7 |

| F | Gbmaj7 (Gbmaj7-Fmaj7-Emaj7)| Emaj7 | F6  Bb9 |

| Eb(add2) ...




 LYRICS
**********
Over time, I've building my castle of love
Just for two, though you never knew you were my reason
I've gone much too far for you now to say
That I've got to throw my castle away

Over dreams, I have picked out a perfect come true
Though you never knew it was of you I've been dreaming
The sandman has come from too far away
For you to say: "Come back some other day."

And though you don't believe that they do
They do come true
For did my dreams
Come true when I looked at you
And maybe too, if you would believe
You too might be
Overjoyed, over loved, over me

Over hearts, I have painfully turned every stone
Just to find, I had found what I've searched to discover
I've come much too far for me now to find
The love that I've sought can never be mine

And though you don't believe that they do
They do come true
For did my dreams
Come true when I looked at you
And maybe too, if you would believe
You too might be
Overjoyed, over loved, over me

And though the odds say improbable 
What do they know
For in romance
All true love needs is a chance
And maybe with a chance you will find
You too like I
Overjoyed, over loved, over you, over you



------------------------------------------------------------------------------
 11th /July /14
 Just mail me at Maitinin@gmail.com with questions, comments and corrections!
------------------------------------------------------------------------------



 " Maitinin writing here - the author of this tab.

   The past 11 years, I have generated 10,318,000 views and 815 top-rated tabs for this site.
   If you want to support an eager contributor like me, check out my own site:


   _____  http://www.PlayLikeTheGreats.com  _____


   Here I will continue to upload and improve my transcriptions.

   Best regards,
   Maitinin

   July, 2015 "
Suggest correction
Creating personal tab
Creating personal tab
You can edit any tab online and save it as your Personal.

You can edit, replace or remove any tab part or add personal notes – all changes will be seen only by you.

Personal tabs can be accessed anytime from any device, even offline.
Learn more »
comments
print report bad tab
4 comments total. Showing first comments.
+2 reply
ledhead67 80 Apr 18, 2010 02:09 PM

Excellent! This is the best sounding transcription of this song's chords you can find on UG.

0 reply
jaoui 10 Jun 08, 2014 02:00 PM

Hardcooooooore ! Good job it does sound as the original when I manage to do this $%*#$ chords ! TY

+1 reply
burpo 665 Mar 27, 2015 04:12 PM

Thank you, thank you. An astounding song.

guest
You may want to rate the tab now too:
select rating
Wanna post a correction for this tab? Suggest correction