Oops, an error
Loading. Please wait.

Signed Sealed Delivered Im Yours Bass Tab

version 2
version 2

Whole song

29,445 views 69 this week
no commentswrite comment
1 2 3 4 5
accurate
x 6
add to favorites
launch autoscroll
font size
0
reset
guitar tuner
Tab Pro tools
  • play this tab
  • loop segment
  • change instrument
  • show fretboard
  • metronome
×
Best way to learn
"Signed Sealed Delivered Im Yours"
Autoscroll
slow
fast
+/-
esc
set tempo
stop
Stevie Wonder - Signed, Sealed, Delivered (I'm Yours)
Tabbed by RTBM
Standard Tuning: E A D G

Intro
G|--------------------------|
D|--3-1-0-------------1-3---|
A|-1------3-011------3------|
E|-------------3/4~ 1-------|


Verse
G|----------------------------|
D|--33-2-1-0-00-1-2-3-3-2-0-0-|
A|----------------------------|
E|-1--------------------------|


Chorus I
G|-^----------------------------------------|
D|-3-------------------01-3-1-----------1-3-|
A|------0-1--11-1-3-1-3--3----3-1-----3-----|
E|--01-3----1--3-----------------3/4-1------|


Verse
G|----------------------------|
D|--33-2-1-0-00-1-2-3-3-2-1-0-|
A|----------------------------|
E|-1--------------------------|


Chorus II 
G|-^-------------------------------------------------------------|
D|-3-------------------01-3-3-0---3-3-----------/3-----------3---|
A|------0-1--11-1-3-1-3--3-----30---------0123-------01--3-11----|
E|--01-3----1--3---------------------01-3------1---34---1-----1--|

Chorus II
G|-------------------------------------------------------------------------|
D|-----------3-----------113-/3------1133-1-0-----------1-33-1-0-----------|
A|---01--3-11-----01---3---------013----------3-11-----3---------3-11------|
E|-34---1-----1-34---1------1--34-----------------3/4-1--------------3/4-1-|



Verse
G|----------------------------|
D|--33-2-1-0-00-1-2-3-3-2-0-0-|
A|----------------------------|
E|-1--------------------------|


Chorus I
G|-^----------------------------------------|
D|-3-------------------01-3-1-----------1-3-|
A|------0-1--11-1-3-1-3--3----3-1-----3-----|
E|--01-3----1--3-----------------3/4-1------|


Verse
G|----------------------------|
D|--33-2-1-0-00-1-2-3-3-2-1-0-|
A|----------------------------|
E|-1--------------------------|


Chorus II 
G|-^-------------------------------------------------------------|
D|-3-------------------01-3-3-0---3-3-----------/3-----------3---|
A|------0-1--11-1-3-1-3--3-----30---------0123-------01--3-11----|
E|--01-3----1--3---------------------01-3------1---34---1-----1--|

Chorus II
G|-------------------------------------------------------------------------|
D|-----------3-----------113-/3------1133-1-0-----------1-33-1-0-----------|
A|---01--3-11-----01---3---------013----------3-11-----3---------3-11------|
E|-34---1-----1-34---1------1--34-----------------3/4-1--------------3/4-1-|



Chorus II
G|-----------------------------------------------------------------|
D|---------113----------113-/3------113----------113----------113--|
A|---01-13--------01-13---------013--------01-13--------01-13------|
E|-34---------1-34---------1--34-------1-34---------1-34---------1-|
comments
print report bad tab
I want to post or [tab]
guest
You may want to rate the tab now too:
select rating
Please do not post tabs as comments. Select "correction" instead!