Oops, an error
Loading. Please wait.

Signed Sealed Delivered Im Yours bass

version 3
version 3

Whole song

151 views 9 this week
1 commentread comment
1 2 3 4 5
1 last vote to show rating
add to favorites
×
Save as Personal and add changes to this tab that will be seen only by you. Learn more ›
×
You can save this tab as Personal to edit and correct it or add notes. All changes will be seen only by you. Learn more »
launch autoscroll
font size
0
reset
guitar tuner
edit
Autoscroll
slow
fast
+/-
esc
set tempo
stop
** I am referencing this recording, https://www.youtube.com/watch?v=inXC_lab-34 , to write this tab.
This is a moderatly confusing song for bass, but what did you expect from Stevie?! This tab is very accurate,
but there is always something missed, so please comment. Thx!
Time Signature: 4/4

[Intro]                                   [Verse 1]
 1  2  3  4  1  2  3  4 +  1 + 2  3 + 4 +  1   3 + 4 +     3 + 4 +                 
G|----------|-------------|---------------|------------|-----------|-----------|
D|----------|3--1--0------|-----------1-3-|----3-2-1-0-|---0-1-2-3-|---3-2-1-0-|
A|----------|---------3-1-|1-1-0----3-----|------------|-----------|-----------|
E|----------|-------------|-------1-------|1-----------|-----------|-----------|

[Refrain]
     3 + 4 +  1                a 3 + 4 +
G|-----------|-------------|-------------|
D|---3-------|-------------|-------0-3-0-|
A|-------0-1-|1--------1-3-|---3-3-------|
E|-----3-----|-----1-3-----|-------------|

                                            [Verse 2]
  1  2  3  4    1   2  3 + 4 +  1   3 + 4 +     3 + 4 +                 
G|-------------|---------------|------------|-----------|-----------|
D|3--1--0------|-----------1-3-|----3-2-1-0-|---0-1-2-3-|---3-2-1-0-|
A|---------3---|1---0----3-----|------------|-----------|-----------|
E|-------------|-------1-------|1-----------|-----------|-----------|

[Refrain]
     3 + 4 +  1                a 3 + 4 +       + 4 +   1   a 2 e + a 3 e + a 4 e +
G|-----------|-------------|-------------|------------|----------------------------|
D|---3-------|-------------|-------0-3-0-|3------1-3--|----------------------------|
A|---------0-|1--------1-3-|---3-3-------|-----3------|------0-0---0-1-1---1-3-----|
E|-----1-3---|-----1-3-----|-------------|------------|----0---------------------0-|

[Chorus]
        3 + 4 +                                               
G|--------------|--------------|--------------|--------------|
D|--------------|--------0-3-3-|--------------|-------0-3-3--|
A|--------------|------3-------|--------------|-----3--------|
E|1-----3-4-5-6-|6-------------|1-----3-4-5-6-|6-------------|

  1 +
G|--------------|--------------|--------------|--------------|
D|--------------|--------0-3-3-|--------------|-------0-3-0--|
A|--------------|------3-------|--------------|-----3--------|
E|1-1---3-4-5-6-|6-------------|1-----3-4-5-6-|6-------------|

G|-------------|---------------|-------------|---------------|
D|3--1--0------|-----------1-3-|3--1--0------|-----------1-3-|
A|---------3-1-|1-1-0----3-----|---------3-1-|1-1-0----3-----|
E|-------------|-------1-------|-------------|-------1-------|

[Verse 4]
  1  2  3 + 4 +           a 3  +  4  +                 
G|--------------|----------------------|------------|
D|------3-2-1-0-|---------0-0--1--2--3-|----3-2-1-0-|
A|--------------|----------------------|------------|
E|1--1----------|----------------------|------------|

[Refrain]
     3 + 4 +  1  2              a 3 + 4 +       
G|-----------|--------------|-------------|-------------|---------------|
D|---3-------|--------------|---------0-3-|3--1--0------|-----------1-3-|
A|---------0-|1--1------1-3-|---3-3-3-----|---------3---|1---0----3-----|
E|-----1-3---|------1-3-----|-------------|-------------|-------1-------|

[Verse 4]
  1  2  3 + 4 +     2 e + a 3  +  4  +                 
G|--------------|----------------------|------------|
D|------3-2-1-0-|-----0---0----0--1--2-|3---3-2-1-0-|
A|--------------|----------------------|------------|
E|1--1----------|---1---1---1----------|------------|

[Refrain]
     3 + 4 +  1                a 3 + 4 +
G|-----------|--------------|-------------|
D|---3-------|--------------|---------0-3-|
A|---------0-|1---------1-3-|---3-3-3-----|
E|-----1-3---|------1-3-----|-------------|

       [That one confusing lick]                                
  1  2  a 3 e + 4 +  1   + a 2   +  3 e + a 4 e + a             
G|------------------|------------------------------|
D|3-----3---3---0-3-|----3------------0------------|
A|------------3-----|------1-----2------2---3------|
E|------------------|---------------------------0--|

[Chorus]
        3 + 4 +                                               
G|--------------|--------------|--------------|--------------|
D|--------------|--------0-3-3-|--------------|-------0-3-3--|
A|--------------|------3-------|--------------|-----3--------|
E|1-----3-4-5-6-|6-------------|1-1---3-4-5-6-|6-------------|

G|--------------|--------------|--------------|--------------|
D|--------------|--------0-3-3-|--------------|-------0-3-0--|
A|--------------|------3-------|--------------|-----3--------|
E|1-----3-4-5-6-|6-------------|1-1---3-4-5-6-|6-------------|

G|-------------|---------------|-------------|---------------|
D|3--1--0------|-----------1-3-|3--1--0------|-----------1-3-|
A|---------3---|1---0----3-----|---------3---|1---0----3-----|
E|-------------|-------1-------|-------------|-------1-------|

[Outro Chorus - fadeout]
        3 + 4 +                                               
G|--------------|--------------|--------------|--------------|--------------|-------------|--------------|
D|--------------|----------0-3-|--------------|---------0-3--|--------------|-------0-3-3-|--------------|
A|--------------|------3-3-----|--------------|-----3-3------|--------------|-----3-------|--------------|
E|1-----3-4-5-6-|6-------------|1-1---3-4-5-6-|6-------------|1-----3-4-5-6-|6------------|1-----3-4-5-6-|

       +  3  +  4 e +              
G|---------------------|------|
D|-----------0--3-0----|------|
A|-----1--3---------3--|------|
E|6--------------------|1-----|

            
            
Suggest correction
Creating personal tab
Creating personal tab
You can edit any tab online and save it as your Personal.

You can edit, replace or remove any tab part or add personal notes – all changes will be seen only by you.

Personal tabs can be accessed anytime from any device, even offline.
Learn more »
Give kudos to tab author, rate the tab!
1 2 3 4 5
comments
print report bad tab
1 comment total.
0 reply
stephen.wozniak 1,209 Jun 28, 2017 06:22 PM

Anyone else find the EADG on every system obnoxious, distracting, and unnecessary?
UG won't let me post without that trash

guest
You may want to rate the tab now too:
select rating
Wanna post a correction for this tab? Suggest correction