Oops, an error
Loading. Please wait.

Sir Duke Bass Tab

version 1
version 1
136,266 views 342 this week
6 commentsread comments
1 2 3 4 5
x 23
add to favorites
launch autoscroll
font size
0
reset
guitar tuner
Autoscroll
slow
fast
+/-
esc
set tempo
stop
Help us to improve Ultimate-Guitar.com Take our survey!
×
Artist: Stevie Wonder
Song: Sir Duke
Album: Songs In The Key Of Life (plus any Stevie compilation worth its 
salt!)
Bassist: Nathan Watts
tabbed by: Julian Wathen / email: julianwathen@hotmail.com
http://www.basstabarchive.com/

[Intro] (unison)                                    

1st repeat just play F# once

G||----------------|----------------|----------------|----------------|
D||o-----------9---|------------6---|------------5---|4-424----42-1--o|
A||o---6---9-------|--------6-56----|----2-2-5-5-----|--------------4o|
E||7---------------|4-4-7-67--------|3-3-------------|----------------|


[Verse]

G||----------------|----------------|----------------|----------------|
D||o-------9---9-9-|6-------6-------|5-------5-------|4-------x42-1--o|
A||o---9--------9--|----6-------6---|----5-------5---|----4---------4o|
E||7---------------|----------------|----------------|----------------|


[Bridge]

G||----------------|----------------|----------------|----------------|
D||----------------|----------------|----------------|----------------|
A||7-7-6-6-5-5-4-4-|5-5-6--67------7|7-7-6-6-5-5-4-4-|5-5-6--789------|
E||----------------|----------------|----------------|----------------|


[Chorus]

G||----------------|-------10---1010|--------9---9---|----------------|
D||o-------9---9-9-|---10--------10-|----9---------9-|---------------o|
A||o---9--------9--|8---------------|7---------------|----11--9------o|
E||7---------------|----------------|----------------|9-----------119-|

   horn break (unison)
   |   |   |   |    |   |   |   |    |   |     | |      |     |   |
G||-----------1----|--------4-678---|13--11------------|---------------|
D||-------1----4---|------46--------|---13--1113-119---|11-9--9--------|
A||2-----2-4-4-----|2-456-----------|---------------119|----11---------|
E||--------------24|----------------|------------------|---------------|

   |    |    |   |   |   |   |   |    |   |   |   |    |   |
G||8----------------|----------------|------1414--1-1-|----------------|
D||--119119--9------|4-4-------------|----14-------4--|414-44----------|
A||--------11-11911-|-6--6464242-----|--24------------|----------------|
E||-----------------|------------4-2-|24--------------|----------------|


Listen to the song for arrangement plus embellishments (i.e. the verse and 
chorus riffs
are played with slight variations each time around).  I have endeavoured to 
indicate
the on-beat in some of the horn unison section, but I'm pretty sure these 
aren't quite
correct. I'm not very good at counting to four!
Enjoy!
(and if loads of covers bands start playing this around North London - you 
owe me a pint!)
Suggest correction
comments
print report bad tab
6 comments total. Showing first comments. show 1 bad comment
-1 reply
italia009 10 Aug 01, 2007 12:54 PM

i'm pretty sure you didnt get the verse, but what you have sounds good. if you listen it sounds like...

--------------------------------------
-----9--------6--------5---4--4-2-1---
---6---9----2---6----2---5----------4-
-7--------4--------3------------------

please note i dont really play bass, i just picked up my bro's and thumbed this out. let me know if it helps

+3 reply
DomStables 294 Jan 23, 2010 07:00 PM

nope, gotta say you're wrong.. hes tabbed it well.

although there is no bass part in the intro, and i wouldnt mind a bit more spacing in the "horn break" section to help with the rhythm. im giving 5***** though ;) great tab!

guest
You may want to rate the tab now too:
select rating
Wanna post a correction for this tab? Suggest correction