Oops, an error
Loading. Please wait.

Sir Duke tab

version 3
version 3

Whole song

Video

4,523 views 6 this week
no commentswrite comment
1 2 3 4 5
x 3
add to favorites
×
Save as Personal and add changes to this tab that will be seen only by you. Learn more ›
×
You can save this tab as Personal to edit and correct it or add notes. All changes will be seen only by you. Learn more »
launch autoscroll
font size
0
reset
how to read this tab
guitar tuner
backing track
0:00
0:00
edit
Autoscroll
slow
fast
+/-
esc
set tempo
stop
Author
Okay i noticed there wasn't a tab with the style of the way i learnt it. so i 
decided to tab it out.
Hope you find this tab helpfull and accurate. if you find anything wrong with it. Please 
me or email me at Dickie_willie@hotmail.co.uk

Standard Tuning

Intro

E:|------------------------------------------------|
B:|------------------------------------------------|
G:|-----4------------------------------------------|
D:|---4--------------------6------------------/-5-4|         X 2
A:|--6---------------6p5h6--------------5p4h5------|
E:|-7------6-6-7p6h7----------3-3-7p6h7------------|


Verse

E:|---77X77X77X77X44X44X44X44X1010X1010X1010X99X99X99X99X-|
B:|---77X77X77X77X44X44X44X44X1010X1010X1010X99X99X99X99X-|
G:|---88X88X88X88X44X44X44X44X1010X1010X1010X99X99X99X99X-|
D:|---99X99X99X99X44X44X44X44X9 9 X9 9 X9 9 X88X88X88X88X-|
A:|---99X99X99X99X--X--X--X--X1010X1010X1010X99X99X99X99X-|
E:|---77X77X77X77X--X--X--X--X---------X----X--X--X--X--X-|

Repeat the above as many times as needed.

Bridge Bit
E:|7-7--6-6--5-5--4-4-|-5-5-6-X-7-12\-|
B:|7-7--6-6--5-5--4-4-|-5-5-6-X-7-12\-|
G:|7-7--6-6--5-5--4-4-|-5-5-6-X-7-12\-|
D:|6-6--5-5--4-4--3-3-|-4-4-5-X-6-11\-|
A:|7-7--6-6--5-5--4-4-|-5-5-6-X-7-12\-|
E:|-------------------|---------------|

Second bit same again up until that line there.... this is the second ending

E:|4-5-6-7-9-|
B:|4-5-6-7-9-|
G:|4-5-6-7-9-|
D:|3-4-5-6-8-|
A:|4-5-6-7-9-|
E:|----------|


Chorus

E:|77X8-8-X77X6~------99-|
B:|77X9-9-X99X7~------99-|
G:|88X8-8-X88X6~------99-|
D:|99X1010X99X8~-1111-99
A:|99X8-8-X77X6~-1111---|
E:|77X----X--X---9-9----|

Ths it to the best of my knowledge. Hope this tab works out for you all.
Suggest correction
Creating personal tab
Creating personal tab
You can edit any tab online and save it as your Personal.

You can edit, replace or remove any tab part or add personal notes – all changes will be seen only by you.

Personal tabs can be accessed anytime from any device, even offline.
Learn more »
Give kudos to tab author, rate the tab!
1 2 3 4 5
comments
print report bad tab
guest
You may want to rate the tab now too:
select rating
Wanna post a correction for this tab? Suggest correction