Oops, an error
Loading. Please wait.

Skeletons Bass Tab

version 1
version 1

Whole song

46 views 6 this week
no commentswrite comment
1 2 3 4 5
2 more votes to show rating
add to favorites
launch autoscroll
font size
0
reset
guitar tuner
Autoscroll
slow
fast
+/-
esc
set tempo
stop
Help us to improve Ultimate-Guitar.com Take our survey!
×
Author
Difficulty
Tuning
advanced
D# G# C# F# A# D#
Tuning D# G# C# F# 

[Intro/Verses/Chorus]

F#||-------------------------------------------------------------------------------------|
C#||-------------------------------------------------------------------------------------|
G#||---7-7-5---5h7p5h7-----------------------7-7-5---5h7p5h7-----------------------------|
D#||------------------3---5-5-3--3h5p3p0--------------------3---5-5-3--5b(1/4)-p3p0------|

F#|-------------------------------------------------------------------------------------||
C#|--------------------------------------------------------------------7b(3/4)7-5-------||
G#|-0h5-7-7-5---5h7p5h7-----------------------7-7-5---5h7p5h7--------------------7------||
D#|--------------------3---5-5-3--3h5p3p0-------------------3---5-5-3-------------------||


[Breakdown]
F#|----------------------------------------------------------------------------|
C#|----------------------------------------------------------------------------|
G#|-------/5-4----------5/7-----------/5-4---------5/7------------/5-4---5/7---|
D#|----------------------------------------------------------------------------|

F#|------------------------------------------------------=---------------------|
C#|---------=-5-7b(3/4)-5------------------------------------------------------|
G#|----4--5/7------------7-5---------------------------------------------------|
D#|-------------------------5--------------------------------------------------|

 
************************************

| h  Hammer-on
| p  Pull-off
| /  Slide up 

************************************
Suggest correction
Give kudos to tab author, rate the tab!
1 2 3 4 5
comments
print report bad tab
guest
You may want to rate the tab now too:
select rating
Wanna post a correction for this tab? Suggest correction