Oops, an error
Loading. Please wait.

Superstition Bass Tab

version 1
version 1

Whole song

Interactive

449,372 views 1,017 this week
49 commentsread comments
1 2 3 4 5
x 82
add to favorites
launch autoscroll
font size
0
reset
guitar tuner
Autoscroll
slow
fast
+/-
esc
set tempo
stop
Help us to improve Ultimate-Guitar.com Take our survey!
×
-------------------------------------------------------------------------------
                             Superstition - Stevie Wonder
-------------------------------------------------------------------------------
Comments or Questions?
Email me!
myetton@hotmail.com

As you can see below, you have to tune down half a step (Eb,Ab,Db,Gb) to get it
to sound just right, but you can play it with standard tuning (E,A,D,G) as long 
as the rest of the band is in the right key! (duh!)
This is the way I play it, it's not necesarily the way Stevie plays it live.
Stevie has a keyboard player doing the melody, so if your in a band with no
keyboard player the bassist and the guitarist should play it. I've seen this tabbed
on other sites and it is WRONG! This is the CORRECT way how to play it!


[Intro]

Gb|----------------------------------------|
Db|----------5------------------5----------|  x4
Ab|----7-5-7---5---5h7------5-7---5---5h7--|
Eb|-0------------7------5-7---------7------|


[Verse part 1]

Gb|----------------------------|
Db|----------------------------|  x4
Ab|---------------------3---4--|
Eb|-0--0--0--0--0--0--2---3----|


[Verse part 2]

Gb|----------------------------------------|
Db|------------------------------7/9--5----|
Ab|----7-5h7-------5---5h7-7-5h7--------7--|  x4
Eb|-0--------5h6h7---7---------------------|


[Bridge]

Gb|--------------------------------|
Db|--------------------------------|
Ab|--------------------------------|
Eb|-7---7--8---8--7---7--6---6--5--|


[Verse part 1]

Gb|----------------------------|
Db|----------------------------|  x4
Ab|---------------------3---4--|
Eb|-0--0--0--0--0--0--2---3----|


[Verse part 2]

Gb|----------------------------------------|
Db|------------------------------7/9--5----|
Ab|----7-5h7-------5---5h7-7-5h7--------7--|  x4
Eb|-0--------5h6h7---7---------------------|


[Bridge]

Gb|--------------------------------|
Db|--------------------------------|
Ab|--------------------------------|
Eb|-7---7--8---8--7---7--6---6--5--|




**************************
|h          Hammer-on
|/          Slide up
**************************


(Keep this structure going until all lyrics have been sung or if you want to keep
 it going for solos and improvisations...fun!)


And there we have it! If there is anything wrong or if you have questions or comments
feel free to email at myetton@hotmail.com
Enjoy!

===============================================================================
Suggest correction
comments
print report bad tab
49 comments total. Showing first comments. show 2 bad comments
+6 reply
Michael Yetton 80 Mar 10, 2002 12:00 AM

You shut the fuck up if you want to keep your spleen

guest
You may want to rate the tab now too:
select rating
Wanna post a correction for this tab? Suggest correction