Oops, an error
Loading. Please wait.

Superstition Bass Tab

version 10
version 10

Whole song

Interactive

565 views 348 this week
no commentswrite comment
1 2 3 4 5
2 more votes to show rating
add to favorites
launch autoscroll
font size
0
reset
guitar tuner
Autoscroll
slow
fast
+/-
esc
set tempo
stop
Help us to improve Ultimate-Guitar.com Take our survey!
×
Author
Difficulty
Tuning
intermediate
C# G# E B F# C#
-------------------------------------------------------------------------------
                          SUPERSTITION - Stevie Wonder
-------------------------------------------------------------------------------

Tabbed by - jammyjamesm
Email - jammyjamesm@outlook.com

Tuning - C# F# B E


From what I can hear, this song needs a 5 string bass, but here's a 4 string version that needs all strings
to be lowered by 3 semitones.


Intro - 0:10-0:31

   1 + 2 + 3 + 4 +  1 + 2 + 3 + 4 +  1 + 2 + 3 + 4 a + e  
 E|----------------|----------------|--------------------|
 B|----------------|----------------|--------------------|
F#|----------------|----------------|--------------------|
C#|---------/5-4-0-|2---2---2---2---|2---2---2/5-4p0-----|

   1 + 2 + 3 + 4 +  1 + 2 + 3 + 4 +  
 E|----------------|----------------|
 B|----------------|----------------|
F#|----------------|----------------|
C#|2---2---2---2---|2---2---2/5-4-0-| x3


Verse 1 - 0:31-1:09

   1 + 2 + 3 + 4 a + e  1 + 2 + 3 + 4 +  1 + 2 + 3 + 4 +  1 + 2 + 3 + 4 +  
 E|--------------------|----------------|----------------|----------------|
 B|--------------------|----------------|----------------|----------------|
F#|--------------------|----------------|----------------|----------------|
C#|2---2---2---2---0h1-|2---2---2/5-4-0-|2---2---2---2---|2---2---2/5-4-0-|

   1 + 2 + 3 + 4 a + e  1 + 2 + 3 + 4 +  1 + 2 + 3 + 4 +  1 + 2 + 3 + 4 +  
 E|--------------------|----------------|----------------|----------------|
 B|--------------------|----------------|----------------|----------------|
F#|--------------------|----------------|----------------|------2-4-7-9\--|
C#|2---2---2---2---0h1-|2---2---2/5-4-0-|2---2---2---2---|2---5-----------|

   1 + 2 + 3 a + e 4 a + e  1 a + e 2 + 3 + 4 +  1 + 2 + 3 a + e 4 a + e  1 a + e 2 + 3 + 4 +  
 E|------------------------|------------6-------|------------------------|------------6-------|
 B|--------------2-----2h4-|----4-2h4--4--7-4\--|--4--4--------2-----2h4-|----4-2h4--4--7-4-4-|
F#|--------0h2h4-----4-----|--------------------|--------0h2h4-----4-----|--------------------|
C#|2---2-------------------|2-------------------|2-----------------------|2-------------------|

   1 + 2 + 3 a + e 4 a + e  1 a + e 2 + 3 + 4 a + e  1 + 2 + 3 a + e 4 a + e  1 a + e 2 + 3 + 4 +  
 E|------------------------|------------6-----------|------------------------|------------6-------|
 B|--4--4--------2-----2h4-|----4-2h4--4--7-4---4---|--4--4--------2-----2h4-|----4-2h4--4--7-4\--|
F#|--------0h2h4-----4-----|----------------------4-|--------0h2h4-----4-----|-------------------2|
C#|2-----------------------|2-----------------------|2-----------------------|2-------------------|


Chorus 1 - 1:09-1:19

   1 + 2 a + e 3 + 4 a + e  1 + 2 a + e 3 + 4 +  1 + 2 + 3 + 4 +  1  2   3 4 a + e 
 E|------------------------|--------------------|----------------|-----------------|
 B|------------------------|--------------------|----------------|-----------------|
F#|4--4----4-4-5--5----2h3-|4--4--4-4-4-3-3-3-3-|2-2-2-2-2-2-2-2-|-/(19)\----------|
C#|------------------------|--------------------|----------------|-------------4h5-|


Verse 2 - 1:19-2:06

   1 + 2 a + e 3 + 4 +  1 + 2 + 3 a + e 4 +  1 + 2 + 3 + 4 +  1 + 2 + 3 + 4 +
 E|--------------------|--------------------|----------------|----------------|
 B|--------------------|--------------------|----------------|----------------|
F#|--------------------|--------------------|----------------|----------------|
C#|2---2---0h2-2---2---|2---2---2---5h7p5-0-|2---2---2---2---|2---2---2---7-0-|

   1 + 2 + 3 + 4 a + e  1 + 2 + 3 + 4 +  1 + 2 + 3 + 4 +  1 + 2 + 3 + 4 +  
 E|--------------------|----------------|----------------|----------------|
 B|--------------------|----------------|----------------|----------------|
F#|--------------------|----------------|----------------|----------------|
C#|2---2---2---2---0h1-|2---2---2/5-4--x|2---2---2---2---|2---2---2/5-4-0-|

   1 + 2 + 3 + 4 +  1 + 2 + 3 + 4 +  1 + 2 + 3 + 4 +  1 + 2 + 3 + 4 +  
 E|----------------|----------------|----------------|----------------|
 B|----------------|----------------|----------------|----------------|
F#|----------------|----------------|----------------|----------------|
C#|2---2---2---2---|2---2---2/5-4-0-|2---2---2---2---|2---2---2/5-4-0-|

   1 + 2 + 3 a + e 4 a + e  1 a + e 2 + 3 + 4 +  1 + 2 + 3 a + e 4 a + e  1 a + e 2 + 3 + 4 a + e  
 E|------------------------|------------6-------|------------------------|------------6-----------|
 B|--4--4--------2-----2h4-|----4-2h4--4--7-4\--|--4--4--------2-----2h4-|----4-2h4--4--7-4---4---|
F#|--------0h2h4-----4-----|--------------------|--------0h2h4-----4-----|----------------------4-|
C#|2-----------------------|2-------------------|2-----------------------|2-----------------------|

   1 + 2 + 3 a + e 4 a + e  1 a + e 2 + 3 + 4 a + e  1 + 2 + 3 a + e 4 a + e  1 a + e 2 + 3 + 4  +  
 E|------------------------|------------6-----------|------------------------|----------------------|
 B|--4--4--------2-----2h4-|----4-2h4--4--7-4---4---|--4--4--------2-----2h4-|----4-2h4---2----/(6)\|
F#|--------0h2h4-----4-----|----------------------4-|--------0h2h4-----4-----|----------------------|
C#|2-----------------------|2-----------------------|2-----------------------|2---------------------|


Chorus 2 - 2:06-2:15

   1 + 2 + 3 + 4 a + e  1 a + e 2 + 3 + 4 +  1 a + e 2 a + e 3 a + e 4 a + e  1  2 3 4 a + e
 E|--------------------|--------------------|--------------------------------|---------------|
 B|--------------------|--------------------|--------------7---7h9---7---4--/|14\------------|
F#|4--4----5--5----2h3-|4p0h4---4-4-3-3-3-3-|2-----5/7h9-----9---------------|---------------|
C#|--------------------|--------------------|--------------------------------|---------0-0h1-|


Bridge - 2:15-2:43

   1 + 2 + 3 + 4 a + e  1 + 2 + 3 + 4 +  1 + 2 a + e 3 + 4 +  1 + 2 + 3 + 4 + 
 E|--------------------|----------------|--------------------|----------------|
 B|--------------------|----------------|--------------------|----------------|
F#|--------------------|----------------|--------------------|------------2-3-|
C#|2---2---2---2---0h1-|2---2---2/5-4-0-|2---2---0h1-2---2---|2---2---2-5-----|

   1 a + e 2 a + e 3 + 4 a + e  1 + 2 a + e 3 + 4 +
 E|----------------------------|--------------------|
 B|----------------------------|--------------------|
F#|4---x-4-----2h4h5--5----2h3h|4--4----0h2h3--3--3-|
C#|----------------------------|--------------------|

   1 a + e 2 a + e 3 a + e 4 a + e  1 a + e 2  + 3 + 4 a + e
 E|----------------------------9-7-|-------------------------|
 B|----------------7-----9---x-----|9------------------------|
F#|2-----5/7h9---x-----x-----------|--7----/19\--------------|
C#|--------------------------------|---------------------0h1-|

   1 + 2 + 3 + 4 +  1 + 2 a + e 3 a + e 4 +  1 + 2 a + e 3 + 4 a + e  1 + 2 a + e 3 + 4 +
 E|----------------|------------------------|------------------------|--------------------|
 B|----------------|------------------------|------------------------|--------------------|
F#|----------------|------------------------|------------------------|--------------------|
C#|2---2---2---2---|2---2---0h2-2---4h5p4-0-|2---2-----0h2---2-----0h|2---2-----0h2/5-4-0-|


Verse 3 - 2:43-3:21

   1 + 2 a + e 3 + 4 a + e  1 + 2 a + e 3 + 4 +
 E|------------------------|--------------------|
 B|------------------------|--------------------|
F#|------------------------|--------------------|
C#|2---2-----0h2---2---0h2-|2---2-----0h2/5-4-0-| x2

   1 + 2 + 3 + 4 a + e  1 + 2 + 3 + 4 +  1 + 2 + 3 + 4 a + e  1 + 2 a + e 3 + 4 +
 E|--------------------|----------------|--------------------|--------------------|
 B|--------------------|----------------|--------------------|--------------------|
F#|--------------------|----------------|--------------------|--------------------|
C#|2---2---2---2---0h2-|2---2---2/5-4-0-|2---2---2---2-----0h|2---2-----0h2/5-4-0-|

   1 + 2 + 3 a + e 4 a + e  1 a + e 2 + 3 + 4 +  1 + 2 + 3 a + e 4 a + e  1 a + e 2 + 3 + 4 a + e  
 E|------------------------|------------6-------|------------------------|------------6-----------|
 B|--4--4--------2-----2h4-|----4-2h4--4--7-4-4-|--4--4--------2-----2h4-|----4-2h4--4--7-4---4---|
F#|--------0h2h4-----4-----|--------------------|--------0h2h4-----4-----|----------------------4-|
C#|2-----------------------|2-------------------|2-----------------------|2-----------------------|

   1 + 2 + 3 a + e 4 a + e  1 a + e 2 + 3 a + e 4 a + e  1 + 2 + 3 a + e 4 a + e  1 a + e 2 + 3 a + e 4 +  
 E|------------------------|------------6---4----------|------------------------|-------------6-------4-5-|
 B|--4--4--------2-----2h4-|----4-2h4--4--4-----4---4--|--4--4--------2-----2h4-|----4-2h4---4--4-7-4--4--|
F#|--------0h2h4-----4-----|---------------------------|--------0h2h4-----4-----|-------------------------|
C#|2-----------------------|2--------------------------|2-----------------------|2------------------------|


Chorus 3 - 3:21-3:30

   1 + 2 a + e 3 + 4 a + e  1 + 2 a + e 3 + 4 + 
 E|--------5h6---------4h5-|--------2h4---------|
 B|------------------------|--------------------|
F#|4--4--------5--5--------|4--4--------3--3----|
C#|------------------------|--------------------|

   1 a + e 2 a + e 3 a + e 4 +  1 +  2 + 3 + 4 +
 E|----------------------------|//19\\-----------|
 B|------7-----9---7-----------|--------------/7\|
F#|2/7h9-----x---x---x-9-------|-----------------|
C#|----------------------------|-----------------|


Outro

   1 + 2 +  3 +  4 a + e  1 +  2 +  3 + 4 +  1 + 2 +  3 +  4 +  1 +  2 +  3 a + e 4 +
 E|----------------------|------------------|------------------|----------------------|
 B|----------------------|------------------|------------------|----------------------|
F#|--2-------------------|------------------|------------------|----------------------|
C#|2---2--x-2--x-2---0h2-|2--x-2--x-2/5-4-0-|2---2--x-2--x-2--x|2--x-2--x-2---4h5p4-0-|

   1 + 2 a + e 3 + 4 a + e  1 + 2 + 3 a + e 4 +  1 +  2 +  3 +  4 +  1 +  2 +  3 a + e 4 +
 E|------------------------|--------------------|-------------------|----------------------|
 B|--------2h4-------------|--------------------|-------------------|----------------------|
F#|------------------------|--------------------|-------------------|----------------------|
C#|2---2-------2---2---0h2-|2---2---2---4h5p4-0-|2--x-2--x-2--x-2--x|2--x-2--x-2---4h5p4-0-|

   1 + 2 + 3 a + e 4 a + e  1 a + e 2 + 3 + 4  +    1 +  2 +  3 +  4 a + e  1 +  2 a + e 3 a + e 4 a + e
 E|------------------------|------------4----------|-----------------------|-----------------------------|
 B|--4--4--------2-----2h4-|----4-2h4--4--7-4/(16)-|-----------------------|-------------------------2h4-|
F#|--------0h2h4-----4-----|-----------------------|-----------------------|-----------------2---4-------|
C#|2-----------------------|2----------------------|2--x-2--x-2--x-2---0h1-|2--x-2-----2-5-2---2---2-----|

   1 + 2 + 3 a + e 4 a + e  1 a + e 2 + 3 + 4 +  1 + 2 a + e 3 + 4 +  1 + 2 + 3 + 4 +
 E|------------------------|------------6-------|--------------------|----------------|
 B|--4--4--------2-----2h4-|----4-2h4--4--7-7~~~|--------------------|----------------|
F#|--------0h2h4-----4-----|--------------------|--------------------|----------------|
C#|2-----------------------|2-------------------|2---2-----0h2--x2---|2---2---2--5-4-x|

   1 + 2 + 3 a + e 4 a + e  1 a + e 2 + 3 + 4 +  1 + 2 a + e 3 + 4 a + e  1 + 2 + 3 + 4 + 
 E|------------------------|------------6-4-----|------------------------|----------------|
 B|--4--4--------2-----2h4-|----4-2h4--4----7~7~|------------------------|----------------|
F#|--------0h2h4-----4-----|--------------------|------------------------|----------------|
C#|2-----------------------|2-------------------|2---2---0h1-2---2---0h1-|2---2-----5-4-0-|

   1 + 2 + 3 a + e 4 a + e  1 a + e 2 + 3 + 4 + 
 E|------------------------|------------6-4-----|
 B|--4--4--------2-----2h4-|----4-2h4--4----7~7~|
F#|--------0h2h4-----4-----|--------------------|
C#|2-----------------------|2-------------------|x2



| x  mute note
| /  slide up
| \  slide down 
| h  hammer on
| p  pull off
|(x) ghost note
| ~ vibrato
Suggest correction
Give kudos to tab author, rate the tab!
1 2 3 4 5
comments
print report bad tab
guest
You may want to rate the tab now too:
select rating
Wanna post a correction for this tab? Suggest correction