Oops, an error
Loading. Please wait.
We have Chord Pro version of Superstition.
It's the closest thing you can get to the original song and it has interactive parts. Check out the tab »
×

Superstition bass

version 3
version 3

Whole song

Interactive

22,194 views 54 this week
2 commentsread comments
1 2 3 4 5
x 5
add to favorites
×
Save as Personal and add changes to this tab that will be seen only by you. Learn more ›
×
You can save this tab as Personal to edit and correct it or add notes. All changes will be seen only by you. Learn more »
launch autoscroll
font size
0
reset
guitar tuner
backing track
0:00
0:00
edit
Autoscroll
slow
fast
+/-
esc
set tempo
stop
Author
Difficulty
Unregistered
intermediate
I play this song in Eb, like the live version, but most other people play it in
E... So if you really are bothered, tune up a haf step.
Drums intro
Guitar intro.....
After four bars of guitar bass comes in



[Verse Part 1]

G|---------------------------------------------------------------------------|
D|---------------------------------------------------------------------------|
A|6-6-6-6-6-6-6-9-6----------------------------------------------------------|
E|-----------------9---------------------------------------------------------|


[Verse part 2]

G|-8-8------6-88-------------------------------------------------------------|
D|------6h8-8-----------8----------------------------------------------------|
A|6-6---9---------6-4-66-9-6---X4--------------------------------------------|
E|---------------------------------------------------------------------------|


[Chorus]

G|---------------------------------------------------------------------------|
D|---------------------------------------------------------------------------|
A|---------------------------------------------------------------------------|
E|6-67-76-64-44-44'Bass fill if you like'Then--4-4-444-----------------------|


[Outro]

G|8~-6~5~--------------------------------------------------------------------|
D|-------8~5~----------------------------------------------------------------|
A|-----------6~--------------------------------------------------------------|
E|---------------------------------------------------------------------------|



************************************

| h  Hammer-on
| ~  Vibrato 

************************************
Suggest correction
Creating personal tab
Creating personal tab
You can edit any tab online and save it as your Personal.

You can edit, replace or remove any tab part or add personal notes – all changes will be seen only by you.

Personal tabs can be accessed anytime from any device, even offline.
Learn more »
comments
print report bad tab
2 comments total.
0 reply
THWIT 412 Apr 17, 2013 08:36 AM

If you want to play this song with standard tuning, I think it's better to play the second part of the verse like this:

Verse part 2
G|-8-8----------------------------------------------------------------------|
D|-------------------------8------------------------------------------------|
A|6-6-------4--4-6---6-4-66-9-6---X4----------------------------------------|
E|------4h6--6--------------------------------------------------------------|

+1 reply
Ludvigo 10 Aug 16, 2015 05:53 PM

This is not even the verse

guest
Wanna post a correction for this tab? Suggest correction