Oops, an error
Loading. Please wait.
We have Chord Pro version of Superstition.
It's the closest thing you can get to the original song and it has interactive parts. Check out the tab »
×

Superstition tab

version 4
version 4

Whole song

Interactive

Video

4,897 views 192 this week
4 commentsread comments
1 2 3 4 5
x 5
add to favorites
×
Save as Personal and add changes to this tab that will be seen only by you. Learn more ›
×
You can save this tab as Personal to edit and correct it or add notes. All changes will be seen only by you. Learn more »
launch autoscroll
font size
0
reset
how to read this tab
guitar tuner
backing track
0:00
0:00
edit
Autoscroll
slow
fast
+/-
esc
set tempo
stop
Author
About this tab version
Converted lyrics and brass instruments into guitar. (Tune Down Half a Step) if your playing it with song. Was this info helpful? Yes No
[Intro]

e|---------------------------------------------------------------------------|
B|---------------------------------------------------------------------------|
G|---------------------------------------------------------------------------|
D|---------------------------------------------------------------------------|
A|-----5-7-------------------------------------------------------------------|
E|-5h7-----------------------------------------------------------------------|

e|---------------------------------------------------------------------------|
B|---------------------------------------------------------------------------|
G|---------------------------------------------------------------------------|
D|----------------5-x------------------5-x-----------------------------------|
A|---------7-5-7------5-x-5h7------5-7-----5-x-5h7---------------------------|
E|------0---------------------5-7--------------------------------------------| (x3)

[Verse 1]

e|---------------------------------------------------------------------------|
B|----------------------------------------------8----------------------------|
G|----------------------------------------7---7---9--------------------------|
D|----------------5-x---------------------7-9--------------------------------|
A|---------7-5-7------5-x-5h7------5-7--7------------------------------------|
E|------0---------------------5-7--------------------------------------------|

e|---------------------------------------------------------------------------|
B|---------------------------------------------------------------------------|
G|---------------------------------7-----------------------------------------|
D|-----------5-x-------------------7-9-7-------------------------------------|
A|------5-7------5-x-5h7------5-7--------10----------------------------------|
E|-----------------------5-7-------------------------------------------------|

e|---------------------------------------------------------------------------|
B|----------------------------------------------8----------------------------|
G|----------------------------------------7---7---9--------------------------|
D|----------------5-x---------------------7-9--------------------------------|
A|---------7-5-7------5-x-5h7------5-7--7------------------------------------|
E|------0---------------------5-7--------------------------------------------|

e|---------------------------------------------------------------------------|
B|---------------------------------------------------------------------------|
G|---------------------------------7-----------------------------------------|
D|-----------5-x-------------------7-9-7-------------------------------------|
A|------5-7------5-x-5h7------5-7--------10----------------------------------|
E|-----------------------5-7-------------------------------------------------|

e|---------------------------------------------------------------------------|
B|---------------------------------------------8-----------------------------|
G|---------------------------------------7---7-------------------------------|
D|----------------5-x--------------------7-9---------------------------------|
A|---------7-5-7------5-x-5h7------5-7--7------------------------------------|
E|------0---------------------5-7--------------------------------------------|

(Verse 2)

e|---------------------------------------------------------------------------|
B|---------------------------------------------------------------------------|
G|------9-7h9-------7---7h9--9-7h9-7-----------------------------------------|
D|------------7h8h9---9------------7-9-7-------------------------------------|
A|---------------------------------------10----------------------------------|
E|---------------------------------------------------------------------------|

e|---------------------------------------------------------------------------|
B|--------------------------------------------8------------------------------|
G|---------9-7h9-------7---7h9--9-7h9---7---7--------------------------------|
D|---------------7h8h9---9--------------7-9----------------------------------|
A|------------------------------------7--------------------------------------|
E|-------0-------------------------------------------------------------------|

e|---------------------------------------------------------------------------|
B|---------------------------------------------------------------------------|
G|------9-7h9-------7---7h9--9-7h9-7-----------------------------------------|
D|------------7h8h9---9------------7-9-7-------------------------------------|
A|---------------------------------------10----------------------------------|
E|---------------------------------------------------------------------------|

e|---------------------------------------------------------------------------|
B|------------------------------------10b-8----------------------------------|
G|---------9-7h9-------7---7h9--9-7h9-------9--------------------------------|
D|---------------7h8h9---9---------------------------------------------------|
A|---------------------------------------------------------------------------|
E|-------0-------------------------------------------------------------------|

[Chorus]

e|--7--7--x-x--8--8--x-x--7--7--x-x--6--6--x-x--5-5-5-5-5-5-5-5--7-7-7-------|
B|--7--7--x-x--8--8--x-x--7--7--x-x--6--6--x-x--5-5-5-5-5-5-5-5--7-7-7-------|
G|--8--8--x-x--9--9--x-x--8--8--x-x--7--7--x-x--6-6-6-6-6-6-6-6--8-8-8-------|
D|--7--7--x-x--8--8--x-x--7--7--x-x--6--6--x-x--5-5-5-5-5-5-5-5--7-7-7-------|
A|--9--9--x-x--10-10-x-x--9--9--x-x--8--8--x-x--7-7-7-7-7-7-7-7--9-9-9-------|
E|--7--7--x-x--8--8--x-x--7--7--x-x--6--6--x-x--5-5-5-5-5-5-5-5--7-7-7-------|

e|---------------------------------------------------------------------------|
B|--15(17)b-15(17)b-15-14-12-14----------------------------------------------|
G|------------------------------9--------------------------------------------|
D|---------------------------------------------------------------------------|
A|---------------------------------------------------------------------------|
E|---------------------------------------------------------------------------|

(Verse 1)

e|--------------------------------------------------------------------------|
B|---------------------------------------------8----------------------------|
G|---------------------------------------7---7---9--------------------------|
D|---------------5-x---------------------7-9--------------------------------|
A|--------7-5-7------5-x-5h7------5-7--7------------------------------------|
E|---------------------------5-7--------------------------------------------|

e|---------------------------------------------------------------------------|
B|---------------------------------------------------------------------------|
G|---------------------------------7-----------------------------------------|
D|-----------5-x-------------------7-9-7-------------------------------------|
A|------5-7------5-x-5h7------5-7--------10----------------------------------|
E|-----------------------5-7-------------------------------------------------|

e|---------------------------------------------------------------------------|
B|----------------------------------------------8----------------------------|
G|----------------------------------------7---7---9--------------------------|
D|----------------5-x---------------------7-9--------------------------------|
A|---------7-5-7------5-x-5h7------5-7--7------------------------------------|
E|------0---------------------5-7--------------------------------------------|

e|---------------------------------------------------------------------------|
B|---------------------------------------------------------------------------|
G|---------------------------------7-----------------------------------------|
D|-----------5-x-------------------7-9-7-------------------------------------|
A|------5-7------5-x-5h7------5-7--------10----------------------------------|
E|-----------------------5-7-------------------------------------------------|

e|---------------------------------------------------------------------------|
B|---------------------------------------------8-----------------------------|
G|---------------------------------------7---7-------------------------------|
D|----------------5-x--------------------7-9---------------------------------|
A|---------7-5-7------5-x-5h7------5-7--7------------------------------------|
E|------0---------------------5-7--------------------------------------------|

(Verse 2)

e|---------------------------------------------------------------------------|
B|---------------------------------------------------------------------------|
G|------9-7h9-------7---7h9--9-7h9-7-----------------------------------------|
D|------------7h8h9---9------------7-9-7-------------------------------------|
A|---------------------------------------10----------------------------------|
E|---------------------------------------------------------------------------|

e|---------------------------------------------------------------------------|
B|--------------------------------------------8------------------------------|
G|---------9-7h9-------7---7h9--9-7h9---7---7--------------------------------|
D|---------------7h8h9---9--------------7-9----------------------------------|
A|------------------------------------7--------------------------------------|
E|-------0-------------------------------------------------------------------|

e|---------------------------------------------------------------------------|
B|---------------------------------------------------------------------------|
G|------9-7h9-------7---7h9--9-7h9-7-----------------------------------------|
D|------------7h8h9---9------------7-9-7-------------------------------------|
A|---------------------------------------10----------------------------------|
E|---------------------------------------------------------------------------|

e|---------------------------------------------------------------------------|
B|------------------------------------10b-8----------------------------------|
G|---------9-7h9-------7---7h9--9-7h9-------9--------------------------------|
D|---------------7h8h9---9---------------------------------------------------|
A|---------------------------------------------------------------------------|
E|-------0-------------------------------------------------------------------|

[Chorus]

e|--7--7--x-x--8--8--x-x--7--7--x-x--6--6--x-x--5-5-5-5-5-5-5-5--7-7-7-------|
B|--7--7--x-x--8--8--x-x--7--7--x-x--6--6--x-x--5-5-5-5-5-5-5-5--7-7-7-------|
G|--8--8--x-x--9--9--x-x--8--8--x-x--7--7--x-x--6-6-6-6-6-6-6-6--8-8-8-------|
D|--7--7--x-x--8--8--x-x--7--7--x-x--6--6--x-x--5-5-5-5-5-5-5-5--7-7-7-------|
A|--9--9--x-x--10-10-x-x--9--9--x-x--8--8--x-x--7-7-7-7-7-7-7-7--9-9-9-------|
E|--7--7--x-x--8--8--x-x--7--7--x-x--6--6--x-x--5-5-5-5-5-5-5-5--7-7-7-------|

e|---------------------------------------------------------------------------|
B|--15(17)b-15(17)b-15-14-12-14----------------------------------------------|
G|------------------------------9--------------------------------------------|
D|---------------------------------------------------------------------------|
A|---------------------------------------------------------------------------|
E|---------------------------------------------------------------------------|

(Verse 3)

e|---------------------------------------------------------------------------|
B|---------------------------------------------------------------------------|
G|---------------------------------------------------------------------------|
D|----------------5-x------------------5-x-----------------------------------|
A|---------7-5-7------5-x-5h7------5-7-----5-x-5h7---------------------------|
E|---------------------------5-7--------------------------------------------| 

e|--7--8--7--6-|
B|--7--8--7--6-|
G|--8--9--8--7-|
D|--7--8--7--6-|
A|--9--10-9--8-|
E|--7--8--7--6-|

(Verse 1)

e|---------------------------------------------------------------------------|
B|---------------------------------------------------------------------------|
G|---------------------------------------------------------------------------|
D|----------------5-x------------------5-x-----------------------------------|
A|---------7-5-7------5-x-5h7------5-7-----5-x-5h7---------------------------|
E|------0---------------------5-7--------------------------------------------| 

e|---------------------------------------------------------------------------|
B|----------------------------------------------8----------------------------|
G|----------------------------------------7---7---9--------------------------|
D|----------------5-x---------------------7-9--------------------------------|
A|---------7-5-7------5-x-5h7------5-7--7------------------------------------|
E|------0---------------------5-7--------------------------------------------|

e|---------------------------------------------------------------------------|
B|---------------------------------------------------------------------------|
G|---------------------------------7-----------------------------------------|
D|-----------5-x-------------------7-9-7-------------------------------------|
A|------5-7------5-x-5h7------5-7--------10----------------------------------|
E|-----------------------5-7-------------------------------------------------|

e|---------------------------------------------------------------------------|
B|----------------------------------------------8----------------------------|
G|----------------------------------------7---7---9--------------------------|
D|----------------5-x---------------------7-9--------------------------------|
A|---------7-5-7------5-x-5h7------5-7--7------------------------------------|
E|------0---------------------5-7--------------------------------------------|

e|---------------------------------------------------------------------------|
B|---------------------------------------------------------------------------|
G|---------------------------------7-----------------------------------------|
D|-----------5-x-------------------7-9-7-------------------------------------|
A|------5-7------5-x-5h7------5-7--------10----------------------------------|
E|-----------------------5-7-------------------------------------------------|

e|---------------------------------------------------------------------------|
B|---------------------------------------------8-----------------------------|
G|---------------------------------------7---7-------------------------------|
D|----------------5-x--------------------7-9---------------------------------|
A|---------7-5-7------5-x-5h7------5-7--7------------------------------------|
E|------0---------------------5-7--------------------------------------------|

(Verse 2)

e|---------------------------------------------------------------------------|
B|---------------------------------------------------------------------------|
G|------9-7h9-------7---7h9--9-7h9-7-----------------------------------------|
D|------------7h8h9---9------------7-9-7-------------------------------------|
A|---------------------------------------10----------------------------------|
E|---------------------------------------------------------------------------|

e|---------------------------------------------------------------------------|
B|--------------------------------------------8------------------------------|
G|---------9-7h9-------7---7h9--9-7h9---7---7--------------------------------|
D|---------------7h8h9---9--------------7-9----------------------------------|
A|------------------------------------7--------------------------------------|
E|-------0-------------------------------------------------------------------|

e|---------------------------------------------------------------------------|
B|---------------------------------------------------------------------------|
G|------9-7h9-------7---7h9--9-7h9-7-----------------------------------------|
D|------------7h8h9---9------------7-9-7-------------------------------------|
A|---------------------------------------10----------------------------------|
E|---------------------------------------------------------------------------|

e|---------------------------------------------------------------------------|
B|------------------------------------10b-8----------------------------------|
G|---------9-7h9-------7---7h9--9-7h9-------9--------------------------------|
D|---------------7h8h9---9---------------------------------------------------|
A|---------------------------------------------------------------------------|
E|-------0-------------------------------------------------------------------|


[Chorus]

e|--7--7--x-x--8--8--x-x--7--7--x-x--6--6--x-x--5-5-5-5-5-5-5-5--7-7-7-------|
B|--7--7--x-x--8--8--x-x--7--7--x-x--6--6--x-x--5-5-5-5-5-5-5-5--7-7-7-------|
G|--8--8--x-x--9--9--x-x--8--8--x-x--7--7--x-x--6-6-6-6-6-6-6-6--8-8-8-------|
D|--7--7--x-x--8--8--x-x--7--7--x-x--6--6--x-x--5-5-5-5-5-5-5-5--7-7-7-------|
A|--9--9--x-x--10-10-x-x--9--9--x-x--8--8--x-x--7-7-7-7-7-7-7-7--9-9-9-------|
E|--7--7--x-x--8--8--x-x--7--7--x-x--6--6--x-x--5-5-5-5-5-5-5-5--7-7-7-------|

e|---------------------------------------------------------------------------|
B|--15(17)b-15(17)b-15-14-12-14----------------------------------------------|
G|------------------------------9--------------------------------------------|
D|---------------------------------------------------------------------------|
A|---------------------------------------------------------------------------|
E|---------------------------------------------------------------------------|


[Outro]

e|---------------------------------------------------------------------------|
B|---------------------------------------------------------------------------|
G|---------------------------------------------------------------------------|
D|----------------5-x------------------5-x-----------------------------------|
A|---------7-5-7------5-x-5h7------5-7-----5-x-5h7---------------------------|
E|----------------------------5-7--------------------------------------------| 

e|---------------------------------------------------------------------------|
B|---------------------------------------------------------------------------|
G|---------------------------------------------------------------------------|
D|----------------5-x------------------5-x-----------------------------------|
A|---------7-5-7------5-x-5h7------5-7-----5-x-5h7---------------------------|
E|------0---------------------5-7--------------------------------------------| 

e|---------------------------------------------------------------------------|
B|--15(17)b-15(17)b-15-14-12-14----------------------------------------------|
G|------------------------------9--------------------------------------------|
D|---------------------------------------------------------------------------|
A|---------------------------------------------------------------------------|
E|---------------------------------------------------------------------------|

e|---------------------------------------------------------------------------|
B|---------------------------------------------------------------------------|
G|---------------------------------------------------------------------------|
D|----------------5-x------------------5-x-----------------------------------|
A|---------7-5-7------5-x-5h7------5-7-----5-x-5h7---------------------------|
E|----------------------------5-7--------------------------------------------| 

e|---------------------------------------------------------------------------|
B|------------------------------------10b-8----------------------------------|
G|---------9-7h9-------7---7h9--9-7h9-------9--------------------------------|
D|---------------7h8h9---9---------------------------------------------------|
A|---------------------------------------------------------------------------|
E|-------0-------------------------------------------------------------------|

e|---------------------------------------------------------------------------|
B|------------------------------------10b-8----------------------------------|
G|---------9-7h9-------7---7h9--9-7h9-------9--------------------------------|
D|---------------7h8h9---9---------------------------------------------------|
A|---------------------------------------------------------------------------|
E|--------------------------------------------------------------------------|

e|---------------------------------------------------------------------------|
B|------------------------------------10b-8----------------------------------|
G|---------9-7h9-------7---7h9--9-7h9-------9--------------------------------|
D|---------------7h8h9---9---------------------------------------------------|
A|---------------------------------------------------------------------------|
E|--------------------------------------------------------------------------|

e|---------------------------------------------------------------------------|
B|------------------------------------10b-8----------------------------------|
G|---------9-7h9-------7---7h9--9-7h9-------9--------------------------------|
D|---------------7h8h9---9---------------------------------------------------|
A|---------------------------------------------------------------------------|
E|--------------------------------------------------------------------------|

e|--7--8--7--6-|
B|--7--8--7--6-|
G|--8--9--8--7-|
D|--7--8--7--6-|
A|--9--10-9--8-|
E|--7--8--7--6-|

e|---------------------------------------------------------------------------|
B|---------------------------------------------------------------------------|
G|---------------------------------------------------------------------------|
D|----------------5-x------------------5-x-----------------------------------|
A|---------7-5-7------5-x-5h7------5-7-----5-x-5h7---------------------------|
E|----------------------------5-7--------------------------------------------| 

The End

By Tigsss
************************************

| x   Dead note
| g   Grace note
| (n) Ghost note
| h   Hammer-on
| p   Pull-off
| r   Release
| >   Accented note
| t   Tapping
| b   Bend
| br  Bend release
| pb  Pre-bend
| pbr Pre-bend release
| /   Slide up
| \   Slide down
| ~   Vibrato
| s   Slap
| P   Pop
| PM  Palm mute
| TR  Trill
| N   Tremolo

************************************

            
            
Suggest correction
Creating personal tab
Creating personal tab
You can edit any tab online and save it as your Personal.

You can edit, replace or remove any tab part or add personal notes – all changes will be seen only by you.

Personal tabs can be accessed anytime from any device, even offline.
Learn more »
comments
print report bad tab
4 comments total. Showing first comments.
+1 reply
Tiagogo 14 Aug 14, 2016 08:34 AM

Best tab I've seen of this, good stuff

+1 reply
Tigsss 57 Aug 14, 2016 08:59 AM, edited on May 7 2017, 07:12 am

Cheers

+1 reply
iamkenman 10 Aug 21, 2016 08:59 PM

Very nice. Tune down a half step.

guest
You may want to rate the tab now too:
select rating
Wanna post a correction for this tab? Suggest correction