Oops, an error
Loading. Please wait.

Superstition Bass Tab

version 9
version 9

Whole song

Interactive

94 views 9 this week
no commentswrite comment
1 2 3 4 5
3 more votes to show rating
add to favorites
launch autoscroll
font size
0
reset
guitar tuner
Autoscroll
slow
fast
+/-
esc
set tempo
stop
Help us to improve Ultimate-Guitar.com Take our survey!
×
Author
Difficulty
intermediate
(Now i Tab the version with Standard Tuning ( EAGD ))

[Intro] 
(0:10)

G|---------------------|x4
D|---------------------|
A|-----------------5h7-|
E|-0-0-0-0-0-0-030-----|

[Verse]
G|---------------------|x4
D|---------------------|
A|-----------------5h7-|
E|-0-0-0-0-0-0-030-----|

G|---------------------------------------|x4
D|-----------------------------x/9-------|
A|---7-x7-------5---77--x7-5h7-----10-7\-|
E|-0------3h5/7---7----------------------|

[Chorus]
G|---------------------------------------------------------------------|
D|-------------------------------------------------/9999---------------|
A|---------------------------------------------------------------------|
E|-7--7-7--8--8-8--7--7-7--6--6-6--5--5-5--5--5-5-----------////12\\\\-|

[Riff]
G|---------------------|x2
D|---------------------|
A|-----------------5h7-|
E|-0-0-0-0-0-0-030-----|

[Verse]
G|---------------------|x4
D|---------------------|
A|-----------------5h7-|
E|-0-0-0-0-0-0-030-----|

G|---------------------------------------|x4
D|-----------------------------x/9-------|
A|---7-x7-------5---77--x7-5h7-----10-7\-|
E|-0------3h5/7---7----------------------|

[Chorus]
G|---------------------------------------------------------------------|
D|-------------------------------------------------/9999---------------|
A|---------------------------------------------------------------------|
E|-7--7-7--8--8-8--7--7-7--6--6-6--5--5-5--5--5-5-----------////12\\\\-|

[Riff]
G|---------------------|x2
D|---------------------|
A|-----------------5h7-|
E|-0-0-0-0-0-0-030-----|

[Chorus]
G|---------------------------------------------------------------------|
D|-------------------------------------------------/9999---------------|
A|---------------------------------------------------------------------|
E|-7--7-7--8--8-8--7--7-7--6--6-6--5--5-5--5--5-5-----------////12\\\\-|

[Riff]
G|---------------------|x2
D|---------------------|
A|-----------------5h7-|
E|-0-0-0-0-0-0-030-----|

[Verse]
G|---------------------|x4
D|---------------------|
A|-----------------5h7-|
E|-0-0-0-0-0-0-030-----|

G|---------------------------------------|x4
D|-----------------------------x/9-------|
A|---7-x7-------5---77--x7-5h7-----10-7\-|
E|-0------3h5/7---7----------------------|

[Chorus]
G|---------------------------------------------------------------------|
D|-------------------------------------------------/9999---------------|
A|---------------------------------------------------------------------|
E|-7--7-7--8--8-8--7--7-7--6--6-6--5--5-5--5--5-5-----------////12\\\\-|

[Riff]
G|---------------------|x4
D|---------------------|
A|-----------------5h7-|
E|-0-0-0-0-0-0-030-----|

G|---------------------------------------|till fade out
D|-----------------------------x/9-------|
A|---7-x7-------5---77--x7-5h7-----10-7\-|
E|-0------3h5/7---7----------------------|



************************************

| b  Bend
| h  Hammer-on
| x  Dead note
| \  Slide down
| /  Slide up

************************************
Suggest correction
Give kudos to tab author, rate the tab!
1 2 3 4 5
comments
print report bad tab
guest
You may want to rate the tab now too:
select rating
Wanna post a correction for this tab? Suggest correction