Oops, an error
Loading. Please wait.

You Are The Sunshine Of My Life chords

version 2
version 2

Interactive

95,403 views 81 this week
3 commentsread comments
1 2 3 4 5
x 20
add to favorites
×
Save as Personal and add changes to this tab that will be seen only by you. Learn more ›
×
You can save this tab as Personal to edit and correct it or add notes. All changes will be seen only by you. Learn more »
launch autoscroll
font size
0
reset
transpose
0
reset
simplify chords
display chords
guitar tuner
backing track
0:00
0:00
edit
Autoscroll
slow
fast
+/-
esc
set tempo
stop
Author
Strumming
There is no strumming pattern for this song yet. and get +5 IQ
You Are The Sunshine Of My Life -  Stevie Wonder


[Intro]

 Bmaj7(9)                            Gb9#5                           
|----------------|----------------|----------------|----------------| (x2)

A
 You are the sunshine of my life
 Bmaj7            E6(9)            Ebm7             Ab7b13         
|----------------|----------------|----------------|----------------|

 That's why I'll always be around
 Dbm7             Gb9sus4          Bmaj7            Dbm7    Gb9sus4  
|----------------|----------------|----------------|----------------|

 You are the apple of my eye,
 Bmaj7            E6(9)            Ebm7             Ab7b13         
|----------------|----------------|----------------|----------------|

 Forever you'll stay in my heart
 Dbm7             Gb9sus4          Bmaj7            Dbm7    Gb9sus4  
|----------------|----------------|----------------|----------------|

B
 I feel like this is the beginning,
 Bmaj7           Emaj7(9) Gb9sus4  Bmaj7            Emaj7(9) Gb9sus4 
|----------------|----------------|----------------|----------------|

 Though I've loved you for a million years,
 Bmaj7           Emaj7(9) Gb9sus4  Bbm7(11)         Eb7b9 (B5・・5・・#5)
|----------------|----------------|----------------|----------------|

 And if I thought our love was ending,
 ABmaj7           DBmaj7  Ebm9     Abm7                             
|----------------|----------------|----------------|----------------|

 I'd find myself drowning in my own tears.         (2)
 Db9                               Gb9sus4         (G9sus4)          
|----------------|----------------|----------------|----------------|

A

B

A'
 You are the sunshine of my life
 Cmaj7            F6(9)            Em7             A7b13          
|----------------|----------------|----------------|----------------|

 That's why I'll always be around
 Dm7              G9sus4           Cmaj7            Dm7    G9sus4    
|----------------|----------------|----------------|----------------|

 You are the apple of my eye,
 Cmaj7            F6(9)            Em7             A7b13          
|----------------|----------------|----------------|----------------|

 Forever you'll stay in my heart
 Dm7              G9sus4           Cmaj7            Dm7    G9sus4    
|----------------|----------------|----------------|----------------|


[Intro]

 Bmaj7(9)  Gb9#5
e|---X---|---X--------------------------|
B|---2---|---1--^3--5--7--9--11--13--13-|
G|---3---|---1^3----5--7--9--11--13--13-|
D|---1---|---2--------------------------|
A|---2---|---X--------------------------|
E|---X---|---2--------------------------|

A
    Bmaj7   E6(9)   Ebm7  Ab7b13  Dbm7  Gb9sus4   Bmaj7   Dbm7  Gb9sus4 
e|---X---|---X---|---X---|---X---|---X---|---X---|---X---|---X---|---X---|
B|---7---|---7---|---7---|---5---|---5---|---0---|---7---|---9---|---9---|
G|---8---|---6---|---6---|---5---|---4---|---1---|---8---|---9---|---9---|
D|---8---|---6---|---4---|---4---|---2---|---2---|---8---|---9---|---9---|
A|---X---|---7---|---6---|---X---|---4---|---X---|---X---|---X---|---9---|
E|---7---|---X---|---X---|---4---|---X---|---2---|---7---|---9---|---X---|

B
   Bmaj7  Emaj7(9) Gb9sus4 or (Gb9sus4) 
e|---X---|---X---|---X---|   |---X---|
B|---7---|---7---|---9---|   |---0---|
G|---8---|---8---|---9---|   |---1---|
D|---8---|---6---|---9---|   |---2---|
A|---X---|---7---|---9---|   |---X---|
E|---7---|---X---|---X---|   |---2---|


  Bbm7(11) Eb7b9 ABmaj7   DBmaj7  Ebm9    Abm7       Db9    Gb9sus4 
e|---X---|--4^5^6-|---X---|---X---|---X---|---X---|  |---X---|---X---|
B|---4---|--5-----|---4---|---6---|---6---|---4---|  |---4---|---9---|
G|---6---|--6-----|---5---|---5---|---6---|---4---|  |---4---|---9---|
D|---6---|--5-----|---5---|---6---|---4---|---4---|  |---3---|---9---|
A|---X---|--6-----|---X---|---4---|---6---|---X---|  |---4---|---9---|
E|---6---|--X-----|---4---|---X---|---X---|---4---|  |---X---|---X---|
Suggest correction
Creating personal tab
Creating personal tab
You can edit any tab online and save it as your Personal.

You can edit, replace or remove any tab part or add personal notes – all changes will be seen only by you.

Personal tabs can be accessed anytime from any device, even offline.
Learn more »
comments
print report bad tab
3 comments total.
0 reply
Maitinin 19,543 Dec 18, 2011 01:32 AM

Ok, I just transcribed the voicings as well, and I disagree a bit with some of your chords.
This is what I got:

Intro
| B(add2) | % | F#aug | % | (I wouldn't include that major third-movement in the F#aug chord)

| B | F#/E | D#m7 | F/G# |
| C#m7 | F#9sus4 | B(add2) | C#m7 F#7sus4 |

| B(add2) | E6/9 F#9sus4 | Bmaj9 | E6/9 F#9sus4 |
| Bmaj9 | E6/9 F#9sus4 | A#m7b5(add11) | D#9(b5-5-#5) |

| Abmaj7 | Dbmaj9(add13) Eb9sus4 | G#m9 | % |
| C#9 | % | F#7sus4 | % |

I know we're both well on the way, I thought I would just offer my input anyway :)

0 reply
MatthewPadron 52 Aug 08, 2013 02:58 PM

The beginning lick sounds more like this to me:
e--------------4-6-----8-10-----12-14--14----
B-3----5--7----5-7-----9-11-----13-15--15----
G-3----5--7----------------------------------
D--------------------------------------------
A--------------------------------------------
E--------------------------------------------

0 reply
gbear4 10 Jun 19, 2015 07:00 PM

The chord Gb9sus4 is wrong. I think what you meant was G7b9Sus4. The way you wrote it has the root as Gb. The G7b9Sus4 has the root as G.

guest
You may want to rate the tab now too:
select rating
Wanna post a correction for this tab? Suggest correction