Oops, an error
Loading. Please wait.

For What Its Worth Tab

version 2
version 2

Whole song

2,093 views 3 this week
no commentswrite comment
1 2 3 4 5
please rate
add to favorites
launch autoscroll
font size
0
reset
how to read this tab
guitar tuner
Autoscroll
slow
fast
+/-
esc
set tempo
stop
Help us to improve Ultimate-Guitar.com Take our survey!
×
Author
Difficulty
Tuning
novice
C G C F A D
"For What Its Worth" by STYG

Tuning: Drop C

Intro: Both Guitars
                     1,2 and 3            4
|-------------------|--------------------|---------------|
|-------------------|--------------------|---------------|
|-------------------|-888-7--------------|-8-7-----------|
|---000-666-000-666-|-888-7-8-8-777-3/66-|-8-7-8-7-3-6---|
|---000-666-000-666-|-666-5-8-8-777-3/66-|-6-5-8-7-3-6---|
|---000-666-000-666-|-------8-8-777-3/66-|-----8-7-3-6---|


First Verse: 
Guitar One
|------------------------------------------------------------|
|------------------------------------------------------------|
|------------------------------------------------------------|
|---555555555555-888888888888-----------------333333333333---|   x 2
|---555555555555-888888888888-111-111-111-111-333333333333---|
|---555555555555-888888888888-111-111-111-111-333333333333---|
PM                            ... ... ... ...

Guitar Two
|--------------------------------------------------------------------------------|
|--------------------------------------------------------------------------------|
|---7777777--101010-88-7777777--101010-88-------------------101010-877-888-755---|
|--------------------------------------------------------------------------------|   x 2
|---5555555--888----66-5555555--888----66--111-111-111-111--888----655-666-533---|
|------------------------------------------111-111-111-111-----------------------|
PM                                         ... ... ... ...

Bridge:
Guitar One
|---------------------------------------------------------|
|---------------------------------------------------------|
|---------------------------------------------------------|
|---111111111111-333333333333-555555555555-888888888888---|  x 2
|---111111111111-333333333333-555555555555-888888888888---|
|---111111111111-333333333333-555555555555-888888888888---|


Guitar Two
|--------------------------|
|--------------------------|
|---12----14----15----19---|
|--------------------------|   x 2
|---10----12----13----17---|
|--------------------------|
(same strumming pattern as Guitar One)

Intro x 1

Outro Part I:
Guitar One
|---------------------------------|
|---------------------------------|
|---------------------------------|
|---1~---3~---5~---10-8-7-8-5-3---|   x 2
|---1~---3~---5~---10-8-7-8-5-3---|
|---1~---3~---5~---10-8-7-8-5-3---|

Guitar Two:
|-----------------------------------------|
|-----------------------------------------|
|---12~---14~---15~---19-20-19-17-19-17---|
|-----------------------------------------|   x 2
|---10~---12~---13~---17-18-17-15-17-15---|
|-----------------------------------------|

Outro Part II:
Guitar one:
|-----------------------------------------------|
|-----------------------------------------------|
|-----------------------------------------------|
|---1-111-1-111-3-333-3-333-5-555-5-555-88-33---|  till end
|---1-111-1-111-3-333-3-333-5-555-5-555-88-33---|
|---1-111-1-111-3-333-3-333-5-555-5-555-88-33---|
PM    ...   ...   ...   ...   ...   ...

Guitar Two:
|---------------------------------------------------------------------------|
|---------------------------------------------------------------------------|
|---12-121212-12-121212-14-141414-14-141414-15-151515-15-151515-1919-1414---|
|---------------------------------------------------------------------------|    till end
|---10-101010-10-101010-12-121212-12-121212-13-131313-13-131313-1717-1212---|
|---------------------------------------------------------------------------|
PM                   (same pattern as Guitar One)



Cheers
Suggest correction
Give kudos to tab author, rate the tab!
1 2 3 4 5
comments
print report bad tab
guest
You may want to rate the tab now too:
select rating
Wanna post a correction for this tab? Suggest correction