Oops, an error
Loading. Please wait.

Nothing You Can Do To Me Tab

46 views 18 this week
no commentswrite comment
1 2 3 4 5
3 more votes to show rating
add to favorites
launch autoscroll
font size
0
reset
how to read this tab
guitar tuner
Autoscroll
slow
fast
+/-
esc
set tempo
stop
Help us to improve Ultimate-Guitar.com Take our survey!
×
Author
Difficulty
Tuning
intermediate
D G C F A D
Stick to Your Guns - Nothing You Can Do To Me

Tuning: D standard

Tabbed by Jasper Vellekoop

==========================================================================

[Intro] 
d |-------------------------|-------------------------------|  
A |-------------------------|-------------------------------|
F |-------------7-----------|-------------------7-----------|
C |---4-x-x-x-x-7-x-x-x-x-7-|-x-x-x-x-4-x-x-x-x-7-x-x-7-----|
G |---4-x-x-x-x-5-x-x-x-x-7-|-x-x-x-x-4-x-x-x-x-5-x-x-7-----|
D |---2-x-x-x-x---x-x-x-x-5-|-x-x-x-x-2-x-x-x-x---x-x-5-----| 2x

d |---------------------------------------------|  
A |---------------------------------------------|
F |-----------7-----------------------7---------|
C |---4--x-x--7--x-x--7--x-x--4--x-x--7-x-7-----|
G |---4--x-x--5--x-x--7--x-x--4--x-x--5-x-7-----|
D |---2--x-x-----x-x--5--x-x--2--x-x----x-5-----| 

d |---------------|---------------------------------------|  
A |---------------|---------------------------------------|
F |--11---13---14-|-------x--13-11-9/---------------------|
C |---x----x----x-|-------x---x--x-x----------------------|
G |---9---11---12-|-------x--11--9-7/---------------------|
D |---------------|---------------------------------------|

As rythm guitar you could play this part like this 
d |---------------|---------------------------------------|  
A |---------------|---------------------------------------|
F |---------------|--------------7------------------------|
C |---4---6----7--|-------x---2--7-7/---------------------|
G |---4---6----7--|-------x---2--5-7/---------------------|
D |---2---4----5--|-------x---0----5/---------------------|

[Verse 1]
d |-------------------------------------------|  
A |-------------------------------------------|
F |-------------------------------------------|
C |--4-2-4---------------4-2-4----------------|
G |--4-2-4---------------4-2-4----------------|
D |--2-0-2---2--2-2-2-2--2-0-2---2--2-2-2-2---|

d |-------------------------|  
A |------------2-------(0)--|
F |--7-7-7--4----4--2-2-4---|
C |--7-7-7--4-------2-2-4---|
G |--5-5-5--2-------0-0-2---|
D |-----------------x-x-----|   

[Verse 1 Lead]
d |----------------------------------|---------------------------------------------|  
A |----------------------------------|---------------------------------------------|
F |--11-9-11-11-11-11-11-11-14-13-10-|-10-10-10-10-10--19-19-19-18-18-18-14-14-16--|
C |---x-x--x--x--x--x--x--x--x--x--x-|--x--x--x--x--x---x--x--x--x--x--x--x--x--x--|
G |---9-7--9--9--9--9--9--9-12-11--9-|--9--9--9--9--9--17-17-17-16-16-16-12-12-14--|
D |----------------------------------|---------------------------------------------|

[Pre-Chorus]
d |---5-----5-----4---------------|  
A |---5-----7-----5-----5-5-5-5-5-|
F |---------------------6-6-6-6-6-|
C |---------------------7-7-7-7-7-|
G |-------------------------------|
D |-------------------------------|

[Chorus]
d |----------------------------------------|  
A |----------------------------------------|
F |--------------------7-7-7-7-7-----------|
C |--4-4-4-4-4--2-2-2--7-7-7-7-7--7-7-7----|
G |--4-4-4-4-4--2-2-2--5-5-5-5-5--7-7-7----|
D |--2-2-2-2-2--0-0-0-------------5-5-5----|

d |----------------------------------------|  
A |----------------------------------------|
F |--------------------7-7-7-7-7--9-9-9----|
C |--4-4-4-4-4--2-2-2--7-7-7-7-7--9-9-9----|
G |--4-4-4-4-4--2-2-2--5-5-5-5-5--7-7-7----|
D |--2-2-2-2-2--0-0-0----------------------|

d |----------------------------------------|  
A |----------------------------------------|
F |--------------------7-7-7-7-7-----------|
C |--4-4-4-4-4--2-2-2--7-7-7-7-7--7-7-7----|
G |--4-4-4-4-4--2-2-2--5-5-5-5-5--7-7-7----|
D |--2-2-2-2-2--0-0-0-------------5-5-5----|

d |--------------------|-----------------------|  
A |--------------------|-----------------------|
F |--------------------|-----------------------|
C |-9-9-9-9-9-9-9-9-12-|-12-12-12-12-12-12-12--|
G |-9-9-9-9-9-9-9-9-12-|-12-12-12-12-12-12-12--|
D |-7-7-7-7-7-7-7-7-10-|-10-10-10-10-10-10-10--|

[Post-Chorus]
d |-------------------------------------|  
A |-------------------------------------|
F |-------------------------------------|
C |--4-4-2-4----------4-4-2-4---7--10---|
G |--4-4-2-4----------4-4-2-4---7--10---|
D |--2-2-0-2----------2-2-0-2---5---8---|

d |---------------------------------------|  
A |---------------------------------------|
F |---------------------------------------|
C |--4-4-2-4--3------4-4-2-4--7-7-7-7-10--|
G |--4-4-2-4--3------4-4-2-4--7-7-7-7-10--|
D |--2-2-0-2--1------2-2-0-2--5-5-5-5--8--|


[Bass Riff]


[Verse 2]
d |-----------------------------------|  
A |-----------------------------------|
F |----------7-----5------------------|
C |----------7--7--5--5-7--4-4-2-2-4--|
G |----------5--7--3--5-7--4-4-2-2-4--|
D |-------------5-----3-5--2-2-0-0-2--|

d |------------------------------------|  
A |------------------------------------|
F |-----------7-----5------------------|
C |-----------7--7--5--5-7--4-4-2-2-4--|
G |-----------5--7--3--5-7--4-4-2-2-4--|
D |--2-2-2-2-----5-----3-5--2-2-0-0-2--|

d |-----------------------------------|
A |-----------------------------------|  
F |-----------7-----------------------|
C |-----------7--7--5/7/5--4-4-2-2-4--|
G |-----------5--7--5/7/5--4-4-2-2-4--|
D |--2-2-2-2-----5--3/5/3--2-2-0-0-2--|

d |------------------------------------|  
A |------------------------------------|
F |-----------7-----5------------------|
C |-----------7--7--5--5-7--4-4-2-2-4--|
G |-----------5--7--3--5-7--4-4-2-2-4--|
D |--2-2-2-2-----5-----3-5--2-2-0-0-2--|

d |-----------------------------------|  
A |-----------------------------------|
F |-----------7-----------------------|
C |-----------7--7--5-7-5-------------|
G |-----------5--7--5-7-5-------------|
D |--2-2-2-2-----5--3-5-3-------------|


[Pre-Chorus 2]
d |--7--7--7--7--5--5--5--|-5--4--4--4--4---5-x-x-5-x-x-5--|  
A |---5--5--5--5--5--5--5-|--5--5--5--5--5--5-x-x-5-x-x-5--|
F |-----------------------|-----------------6-x-x-6-x-x-6--|
C |-----------------------|-----------------7-x-x-7-x-x-7--|
G |-----------------------|--------------------------------|
D |-----------------------|--------------------------------|


[Break/Chorus] 
P.M. (palm muted)
d |----------------------------------------|  
A |----------------------------------------|
F |--------------------7-7-7-7-7-----------|
C |--4-4-4-4-4--2-2-2--7-7-7-7-7--7-7-7----|
G |--4-4-4-4-4--2-2-2--5-5-5-5-5--7-7-7----|
D |--2-2-2-2-2--0-0-0-------------5-5-5----|

P.M.
d |----------------------------------------|  
A |----------------------------------------|
F |--------------------7-7-7-7-7--9-9-9----|
C |--4-4-4-4-4--2-2-2--7-7-7-7-7--9-9-9----|
G |--4-4-4-4-4--2-2-2--5-5-5-5-5--7-7-7----|
D |--2-2-2-2-2--0-0-0----------------------|

P.M.
d |----------------------------------------|  
A |----------------------------------------|
F |--------------------7-7-7-7-7-----------|
C |--4-4-4-4-4--2-2-2--7-7-7-7-7--7-7-7----|
G |--4-4-4-4-4--2-2-2--5-5-5-5-5--7-7-7----|
D |--2-2-2-2-2--0-0-0-------------5-5-5----|

P.M
d |--------------------|-----------------------|  
A |--------------------|-----------------------|
F |--------------------|-----------------------|
C |-9-9-9-9-9-9-9-9-12-|-12-12-12-12-12-12-12--|
G |-9-9-9-9-9-9-9-9-12-|-12-12-12-12-12-12-12--|
D |-7-7-7-7-7-7-7-7-10-|-10-10-10-10-10-10-10--|


Second guitar kicks in like this 
d |------------------------------------------|  
A |------------------------------------------|
F |------------------------------------------|
C |-----------------------------12-12-12-12--|
G |-----------------------------12-12-12-12--|
D |-----------------------------10-10-10-10--|


[Chorus] 
d |----------------------------------------|  
A |----------------------------------------|
F |--------------------7-7-7-7-7-----------|
C |--4-4-4-4-4--2-2-2--7-7-7-7-7--7-7-7----|
G |--4-4-4-4-4--2-2-2--5-5-5-5-5--7-7-7----|
D |--2-2-2-2-2--0-0-0-------------5-5-5----|

d |----------------------------------------|  
A |----------------------------------------|
F |--------------------7-7-7-7-7--9-9-9----|
C |--4-4-4-4-4--2-2-2--7-7-7-7-7--9-9-9----|
G |--4-4-4-4-4--2-2-2--5-5-5-5-5--7-7-7----|
D |--2-2-2-2-2--0-0-0----------------------|

d |----------------------------------------|  
A |----------------------------------------|
F |--------------------7-7-7-7-7-----------|
C |--4-4-4-4-4--2-2-2--7-7-7-7-7--7-7-7----|
G |--4-4-4-4-4--2-2-2--5-5-5-5-5--7-7-7----|
D |--2-2-2-2-2--0-0-0-------------5-5-5----|

d |--------------------|-----------------------|  
A |--------------------|-----------------------|
F |--------------------|-----------------------|
C |-9-9-9-9-9-9-9-9-12-|-12-12-12-12-12-12-12--|
G |-9-9-9-9-9-9-9-9-12-|-12-12-12-12-12-12-12--|
D |-7-7-7-7-7-7-7-7-10-|-10-10-10-10-10-10-10--|

They play this (unmuted) chorus three times


[Lead part chorus]
d |--------------------|-----------------------|  
A |--------------------|-----------------------|
F |-11-11-11-11-11-9-9-|-9-14-14-14-14-9-9-9---|
C |--x--x--x--x--x-x-x-|-x--x--x--x--x-x-x-x---|
G |--9--9--9--9--9-7-7-|-7-12-12-12-12-7-7-7---|
D |--------------------|-----------------------|

d |--------------------|-------------------------|  
A |--------------------|-------------------------|
F |-11-11-11-11-11-9-9-|-9-14-14-14-14-16-16-16--|
C |--x--x--x--x--x-x-x-|-x--x--x--x--x--x--x--x--|
G |--9--9--9--9--9-7-7-|-7-12-12-12-12-14-14-14--|
D |--------------------|-------------------------|

d |--------------------|-----------------------|  
A |--------------------|-----------------------|
F |-11-11-11-11-11-9-9-|-9-14-14-14-14-9-9-9---|
C |--x--x--x--x--x-x-x-|-x--x--x--x--x-x-x-x---|
G |--9--9--9--9--9-7-7-|-7-12-12-12-12-7-7-7---|
D |--------------------|-----------------------|

d |-------------------------|-------------------------|  
A |-------------------------|-------------------------|
F |-16-16-16-16-16-16-16-16-|-19-19-19-19-19-19-19-19-|
C |--x--x--x--x--x--x--x--x-|--x--x--x--x--x--x--x--x-|
G |-14-14-14-14-14-14-14-14-|-17-17-17-17-17-17-17-17-|
D |-------------------------|-------------------------|

d |--------------------|-----------------------|  
A |--------------------|-----------------------|
F |-11-11-11-11-11-9-9-|-9-14-14-14-14-9-9-9---|
C |--x--x--x--x--x-x-x-|-x--x--x--x--x-x-x-x---|
G |--9--9--9--9--9-7-7-|-7-12-12-12-12-7-7-7---|
D |--------------------|-----------------------|

d |-------------------|---------------------|  
A |-------------------|---------------------|
F |--11-11-11-11-11-9-|-9-9-14---14----16---|
C |---x--x--x--x--x-x-|-x-x--x----x-----x---|
G |---9--9--9--9--9-7-|-7-7-12---12----14---|
D |-------------------|---------------------|

d |--------------------|-----------------------|  
A |--------------------|-----------------------|
F |-11-11-11-11-11-9-9-|-9-14-14-14-14-9-9-9---|
C |--x--x--x--x--x-x-x-|-x--x--x--x--x-x-x-x---|
G |--9--9--9--9--9-7-7-|-7-12-12-12-12-7-7-7---|
D |--------------------|-----------------------|

d |-------------------------|-------------------------|  
A |-------------------------|-------------------------|
F |-16-16-16-16-16-16-16-16-|-19-19-19-19-19-19-19-19-|
C |--x--x--x--x--x--x--x--x-|--x--x--x--x--x--x--x--x-|
G |-14-14-14-14-14-14-14-14-|-17-17-17-17-17-17-17-17-|
D |-------------------------|-------------------------|

[Outro]
d |-------------------------|-------------------------------|  
A |-------------------------|-------------------------------|
F |-------------7-----------|-------------------7-----------|
C |---4-x-x-x-x-7-x-x-x-x-7-|-x-x-x-x-4-x-x-x-x-7-x-x-7-----|
G |---4-x-x-x-x-5-x-x-x-x-7-|-x-x-x-x-4-x-x-x-x-5-x-x-7-----|
D |---2-x-x-x-x---x-x-x-x-5-|-x-x-x-x-2-x-x-x-x---x-x-5-----| 2x

d |---------------|---------------------------------------|  
A |---------------|---------------------------------------|
F |--11---13---14-|-------x--13-11-9/---------------------|
C |---x----x----x-|-------x---x--x-x----------------------|
G |---9---11---12-|-------x--11--9-7/---------------------|
D |---------------|---------------------------------------|

As rythm guitar you could play this part like this 
d |---------------|---------------------------------------|  
A |---------------|---------------------------------------|
F |---------------|--------------7------------------------|
C |---4---6----7--|-------x---2--7-7/---------------------|
G |---4---6----7--|-------x---2--5-7/---------------------|
D |---2---4----5--|-------x---0----5/---------------------|


==============================================

x  =  Dead Note
/  =  Slide
(n)=  Ghost note

==============================================
Suggest correction
Give kudos to tab author, rate the tab!
1 2 3 4 5
comments
print report bad tab
guest
You may want to rate the tab now too:
select rating
Wanna post a correction for this tab? Suggest correction