Oops, an error
Loading. Please wait.

Some Kind Of Hope Tab

version 1
version 1

Intro

Interactive

1,440 views 3 this week
1 commentread comment
1 2 3 4 5
please rate
add to favorites
launch autoscroll
font size
0
reset
how to read this tab
guitar tuner
Autoscroll
slow
fast
+/-
esc
set tempo
stop
Help us to improve Ultimate-Guitar.com Take our survey!
×
Author
Difficulty
Tuning
novice
D A D G B E
this is my version of stick to your guns - some kind of hope. i've seen that no one 
tabbed it out yet so
i decided to do the intro.. its not alright, especially the last part doesn't really 
fit, im going to fix this sometime.

************************************

| /   slide up
| \   slide down
| h   hammer-on
| p   pull-off
| ~   vibrato
| +   harmonic
| x   Mute note
| b   Bend
| pb  Pre-bend
| br  Bend release
| pbr Pre-bend release
| brb Bend release bend

************************************

amp settings: high gain, low drive presence, low treble

*let ring through out

e|---------------------------------------------------------------------------|
B|---------------------------------------------------------------------------|
G|---------------------------------------------------------------------------|
D|--------3-----3-----------------------3-----3--------0--2--3--2--0---------|
A|-----5-----5-----------------------5-----5--------------------------3------|
D|--0-----------------------------0------------------------------------------|

e|---------------------------------------------------------------------------|
B|---------------------------------------------------------------------------|
G|-----------------------------------------------------------7---------------|°
D|--------2-----3-----------------------3-----3--------------7---------------|
A|-----3-----3-----------------------5-----5-----------------5---------------|°
D|--3-----------------------------5-----------------0--3--0--5---------------|
Suggest correction
What's this?
You can suggest a correction to this tab. Community and Mods will review your correction and vote to approve or reject it.
comments
We did not receive enough feedback on this tab! Please rate:
print report bad tab
1 2 3 4 5
1 comment total.
+1 reply
Sam Rulez D00d 1,831 wrote on July 17 2012, 10:00 pm

Tuning is actually a step down, so it should be like this:


d|---------------------------------------------------------------------------|
A|---------------------------------------------------------------------------|
F|--------------0-----------------------------0--------------0---------------|
C|--------5-----------------------------5-----------------4-----4-----0------|
G|-----7-----7-----------------------7-----7-----------7-----------7---------|
D|--0-----------------------------0------------------------------------------|

d|-----------------------------------------------------------0---------------|
A|-----------------------------------------------------------0---------------|
F|--------------0-----------------------------0--------------0---------------|°
C|--------4-----------------------------5--------------------3---------------|
G|-----5-----5-----------------------7-----7-----------------3---------------|°
D|--3-----------------------------5-----------------0--3--0--1---------------|

guest
You may want to rate the tab now too:
select rating
Please do not post tabs as comments. Select "correction" instead!