Oops, an error
Loading. Please wait.

The Sun The Moon The Truth Penance Of Self tab

version 1
version 1

Whole song

Interactive

13 views 9 this week
no commentswrite comment
1 2 3 4 5
3 more votes to show rating
add to favorites
×
Save as Personal and add changes to this tab that will be seen only by you. Learn more ›
×
You can save this tab as Personal to edit and correct it or add notes. All changes will be seen only by you. Learn more »
launch autoscroll
font size
0
reset
how to read this tab
guitar tuner
edit
Autoscroll
slow
fast
+/-
esc
set tempo
stop
[The Sun, The Moon, The Truth: 'Penance of Self']
[True View]
[Stick To Your Guns]

Tuning: D G C F A D
Playthrough: https://www.youtube.com/edit?o=U&video_id=2yui8Og0Qek

[Riff 1] - [00:00] - [00:16]
- -------------------------------------------------------------------------------------
- -------------------------------------------------------------------------------------
- -------------------------------------------------------------------------------------
- -x-x-5-----3-----2-------------------------------------------------------------------
- -x-x-5-----3-----2-------------------------------------------------------------------
- -x-x-3-----1-----0-------------------------------------------------------------------

- -2---------------------------------------------------------------
- -4---------------------------------------------------------------
- -5---------------------------------------------------------------
- -2-------------------------------5-----3-----6-------------------
- ---------------------------------3-----1-----4-------4-4-4-4-4-4-
- ---------------------------------3-----1-----4-------4-4-4-4-4-4-
PM                                                     ...........

- -----------------------------------------------------------------
- -----------------------------------------------------------------
- -----------------------------------------------------------------
- -2---------------------------------------------------------------
- -2---------------------------------------------------------------
- -0---------------------------------------------------------------

- -2---------------------------------------------------------------
- -4---------------------------------------------------------------
- -5---------------------------------------------------------------
- -2-------------------------------5-----3-----5-------6---6-------
- ---------------------------------3-----1-----3-------4---4-------
- ---------------------------------3-----1-----3-------4---4-------

[Riff 2] - [00:16] - [00:42] - [x2]
- -----------------------------------------------------------------
- -----------------------------------------------------------------
- -----------------------------------------------------------------
- -2-----------2-----------2-------3-----------3-----6-6---6\------
- -2-----2-2-2-2-----2-2-2-2---2-2-3-----2-2-2-3-----4-4---4\------
- -0-----0-0-0-0-----0-0-0-0---0-0-1-----0-0-0-1-----4-4---4\------
PM       .....       .....     ...       .....

- -----------------------------------------------------------------
- -----------------------------------------------------------------
- -----------------------------------------------------------------
- -2-----------2-----------2-------5-----3-----5-------------------
- -2-----2-2-2-2-----2-2-2-2---2-2-3-----1-----3-------4-4-4-4-4-4-
- -0-----0-0-0-0-----0-0-0-0---0-0-3-----1-----3-------4-4-4-4-4-4-
PM       .....       .....     ...                     ...........

- -----------------------------------------------------------------
- -----------------------------------------------------------------
- -----------------------------------------------------------------
- -2-----------2-----------2-------3-----------3-----6-6---6\------
- -2-----2-2-2-2-----2-2-2-2---2-2-3-----2-2-2-3-----4-4---4\------
- -0-----0-0-0-0-----0-0-0-0---0-0-1-----0-0-0-1-----4-4---4\------
PM       .....       .....     ...       .....

- -----------------------------------------------------------------
- -----------------------------------------------------------------
- ---------------------------------9-------------------------------
- -2-----------2-----------2-------9-----8-----7---7-----6-----5---
- -2-----2-2-2-2-----2-2-2-2---2-2-7-----8-----5---7-----6-----5---
- -0-----0-0-0-0-----0-0-0-0---0-0-------6-----5---5-----4-----3---
PM       .....       .....     ...


[Riff 3, Guitar 1 & 2] - [00:42] - [00:55]
- -----------------------------------------------------------------
- ---------------------------0---0---------------------------0---0-
- ---------------------------3---3---------------------------3---3-
- -----------------------------------------------------------------
- -2-2-2-2-2-2-2-2-2-2-2-2-2---2---2-2-2-2-2-2-2-2-2-2-2-2-2---2---
- -0-0-0-0-0-0-0-0-0-0-0-0-0---0---0-0-0-0-0-0-0-0-0-0-0-0-0---0---
PM .........................   .   .........................   .
- -----------------------------------------------------------------
- ---------------------------0---0---------------------------0---0-
- ---------------------------3---3---------------------------3---3-
- -----------------------------------------------------------------
- -2-2-2-2-2-2-2-2-2-2-2-2-2---2---2-2-2-2-2-2-2-2-2-2-2-2-2---2---
- -0-0-0-0-0-0-0-0-0-0-0-0-0---0---0-0-0-0-0-0-0-0-0-0-0-0-0---0---
PM .........................   .   .........................   .


- -----------------------------------------------------------------
- ---------------------------0---0---------------------------------
- ---------------------------3---3---------------------------------
- ---------------------------------------------------4-3-2---------
- -2-2-2-2-2-2-2-2-2-2-2-2-2---2---2-2-2-2-2-2-2-2-2-4-3-2-----2-2-
- -0-0-0-0-0-0-0-0-0-0-0-0-0---0---0-0-0-0-0-0-0-0-0-2-1-0-----0-0-
PM .........................   .   .................           ...
- -----------------------------------------------------------------
- ---------------------------0---0---------------------------------
- ---------------------------3---3---------------------------------
- ---------------------------------------------------4-3-2-7-6-----
- -2-2-2-2-2-2-2-2-2-2-2-2-2---2---2-2-2-2-2-2-2-2-2-4-3-2-5-4-2-2-
- -0-0-0-0-0-0-0-0-0-0-0-0-0---0---0-0-0-0-0-0-0-0-0-2-1-0-5-4-0-0-
PM .........................   .   .................           ...


[Riff 4] - [00:55] - [01:22] - [x2]
- -----------------------------------------------------------------
- -7-7-7-7-7-7-7-7-7-7-7-7-7-7-7-7-7-7-7-7-7-7-7-7-7-7-7-7-7-7-7-7-
- -9-9-9-9-9-9-9-9-9-9-9-9-9-9-9-9-9-9-9-9-9-9-9-9-9-9-9-9-9-9-9-9-
- -9-9-9-9-9-9-9-9-9-9-9-9-9-9-9-9-8-8-8-8-8-8-8-8-8-8-8-8-8-8-8-8-
- -7-7-7-7-7-7-7-7-7-7-7-7-7-7-7-7-7-7-7-7-7-7-7-7-7-7-7-7-7-7-7-7-
- -0-0-0-0-0-0-0-0-0-0-0-0-0-0-0-0-0-0-0-0-0-0-0-0-0-0-0-0-0-0-0-0-

- -----------------------------------------------------------------
- -3-3-3-3-3-3-3-3-3-3-3-3-3-3-3-3-2-2-2-2-2-2-2-2-2-5-5-5-5-5-5-5-
- -4-4-4-4-4-4-4-4-4-4-4-4-4-4-4-4-3-3-3-3-3-3-3-3-3-6-6-6-6-6-6-6-
- -5-5-5-5-5-5-5-5-5-5-5-5-5-5-5-5-4-4-4-4-4-4-4-4-4-7-7-7-7-7-7-7-
- -5-5-5-5-5-5-5-5-5-5-5-5-5-5-5-5-4-4-4-4-4-4-4-4-4-7-7-7-7-7-7-7-
- -3-3-3-3-3-3-3-3-3-3-3-3-3-3-3-3-2-2-2-2-2-2-2-2-2-5-5-5-5-5-5-5-

[Riff 5] - [01:22] - [01:28]
- -[5]-------------------------------------------------------------
- -[5]-------------------------------------------------------------
- -[5]---------------------------------------------9---------------
- -------------------------------------------------9--8--7-7--6--5-
- -------------------------------------------------7--8--5-7--6--5-
- ----------------------------------------------------6--5-5--4--3-


[Riff 6, Guitar 1 & 2] - [01:28] - [01:55]
- -----------------------------------------------------------------
- -----------------------------------------------------------------
- -----------------------------------------------------------------
- -2-----------2-----------2-------3-----------3-----6-6---6\------
- -2-----2-2-2-2-----2-2-2-2---2-2-3-----2-2-2-3-----4-4---4\------
- -0-----0-0-0-0-----0-0-0-0---0-0-1-----0-0-0-1-----4-4---4\------
PM       .....       .....     ...       .....
- -----------------------------------------------------------------
- -----------------------------------------------------------------
- -----------------------------------------------------------------
- -2-----------2-----------2-------3-----------3-----6-6---6\------
- -2-----2-2-2-2-----2-2-2-2---2-2-3-----2-2-2-3-----4-4---4\------
- -0-----0-0-0-0-----0-0-0-0---0-0-1-----0-0-0-1-----4-4---4\------
PM       .....       .....     ...       .....


- -----------------------------------------------------------------
- -----------------------------------------------------------------
- -----------------------------------------------------------------
- -2-----------2-----------2-------5-----3-----5-------------------
- -2-----2-2-2-2-----2-2-2-2---2-2-3-----1-----3-------4-4-4-4-4-4-
- -0-----0-0-0-0-----0-0-0-0---0-0-3-----1-----3-------4-4-4-4-4-4-
PM       .....       .....     ...                     ...........
- -----------------------------------------------------------------
- -----------------------------------------------------------------
- -----------------------------------------------------------------
- -2-----------2-----------2-------5-----3-----5-------------------
- -2-----2-2-2-2-----2-2-2-2---2-2-3-----1-----3-------4-4-4-4-4-4-
- -0-----0-0-0-0-----0-0-0-0---0-0-3-----1-----3-------4-4-4-4-4-4-
PM       .....       .....     ...                     ...........


- -----------------------------------------------------------------
- -----------------------------------------------------------------
- -----------------------------------------------------------------
- -2-----------2-----------2-------3-----------3-----6-6---6\------
- -2-----2-2-2-2-----2-2-2-2---2-2-3-----2-2-2-3-----4-4---4\------
- -0-----0-0-0-0-----0-0-0-0---0-0-1-----0-0-0-1-----4-4---4\------
PM       .....       .....     ...       .....
- -----------------------------------------------------------------
- -----------------------------------------------------------------
- -----------------------------------------------------------------
- -2-----------2-----------2-------3-----------3-----6-6---6\------
- -2-----2-2-2-2-----2-2-2-2---2-2-3-----2-2-2-3-----4-4---4\------
- -0-----0-0-0-0-----0-0-0-0---0-0-1-----0-0-0-1-----4-4---4\------
PM       .....       .....     ...       .....


- -----------------------------------------------------------------
- -----------------------------------------------------------------
- ---------------------------------9-------------------------------
- -2-----------2-----------2-------9-----8-----7---7---------------
- -2-----2-2-2-2-----2-2-2-2---2-2-7-----8-----5---7---------------
- -0-----0-0-0-0-----0-0-0-0---0-0-------6-----5---5---------------
PM       .....       .....     ...
- -----------------------------------------------------------------
- -----------------------------------------------------------------
- ---------------------------------9-------------------------------
- -2-----------2-----------2-------9---------------7-----6-----5---
- -2-----2-2-2-2-----2-2-2-2---2-2-7---------------7-----6-----5---
- -0-----0-0-0-0-----0-0-0-0---0-0-----------------5-----4-----3---
PM       .....       .....     ...


- -----------------------------------------------------------------
- -----------------------------------------------------------------
- -----------------------------------------------------------------
- -2-----------2-----------2-------3-----------3-----6-6---6\------
- -2-----2-2-2-2-----2-2-2-2---2-2-3-----2-2-2-3-----4-4---4\------
- -0-----0-0-0-0-----0-0-0-0---0-0-1-----0-0-0-1-----4-4---4\------
PM       .....       .....     ...       .....
- -----------------------------------------------------------------
- -----------------------------------------------------------------
- -9-----9-9-9-9-----9-9-9-9-------12----------7-----------10------
- -x-----x-x-x-x-----x-x-x-x-------x-----------x-----------x-------
- -7-----7-7-7-7-----7-7-7-7-------10----------5-----------8-------
- -----------------------------------------------------------------


- -----------------------------------------------------------------
- -----------------------------------------------------------------
- -----------------------------------------------------------------
- -2-----------2-----------2-------5-----3-----5-------------------
- -2-----2-2-2-2-----2-2-2-2---2-2-3-----1-----3-------4-4-4-4-4-4-
- -0-----0-0-0-0-----0-0-0-0---0-0-3-----1-----3-------4-4-4-4-4-4-
PM       .....       .....     ...                     ...........
- -----------------------------------------------------------------
- -----------------------------------------------------------------
- -9-----9-9-9-9-----9-9-9-9---------------------------------------
- -x-----x-x-x-x-----x-x-x-x-------5-----3-----5-------------------
- -7-----7-7-7-7-----7-7-7-7-------3-----1-----3-------4-4-4-4-4-4-
- ---------------------------------3-----1-----3-------4-4-4-4-4-4-
PM                                                     ...........


- -----------------------------------------------------------------
- -----------------------------------------------------------------
- -----------------------------------------------------------------
- -2-----------2-----------2-------3-----------3-----6-6---6\------
- -2-----2-2-2-2-----2-2-2-2---2-2-3-----2-2-2-3-----4-4---4\------
- -0-----0-0-0-0-----0-0-0-0---0-0-1-----0-0-0-1-----4-4---4\------
PM       .....       .....     ...       .....
- -----------------------------------------------------------------
- -----------------------------------------------------------------
- -9-----9-9-9-9-----9-9-9-9-------12----------7-----------10------
- -x-----x-x-x-x-----x-x-x-x-------x-----------x-----------x-------
- -7-----7-7-7-7-----7-7-7-7-------10----------5-----------8-------
- -----------------------------------------------------------------


- -----------------------------------------------------------------
- -----------------------------------------------------------------
- ---------------------------------9-------------------------------
- -2-----------2-----------2-------9-----8-----7---7-----6-----5---
- -2-----2-2-2-2-----2-2-2-2---2-2-7-----8-----5---7-----6-----5---
- -0-----0-0-0-0-----0-0-0-0---0-0-------6-----5---5-----4-----3---
PM       .....       .....     ...
- -----------------------------------------------------------------
- -----------------------------------------------------------------
- -9-----9-9-9-9-----9-9-9-9-------9-------------------------------
- -x-----x-x-x-x-----x-x-x-x-------9-----8-----7---7-----6-----5---
- -7-----7-7-7-7-----7-7-7-7-------7-----8-----5---7-----6-----5---
- ---------------------------------------6-----5---5-----4-----3---


[Riff 3, Guitar 1 & 2] - [01:55] - [02:08]
[Riff 4] - [02:08] - [02:35] - [x2]


[Riff 7, Guitar 1 & 2] - [02:35] - [02:50]
- -----------------------------------------------------------------
- -----------------------------------------------------------------
- -----------------------------------------------------------------
- -2---------------------------------------------------------------
- -2---------------------------------------------------------------
- -0---------------------------------------------------------------
-
- -0-----0-----0---0---0---0---0---0-----0-----0---0---0---0---0---
- -5-----5-----5---5---5---5---5---5-----5-----5---5---5---5---5---
- -----------------------------------------------------------------
- -----------------------------------------------------------------
- -----------------------------------------------------------------
- -----------------------------------------------------------------


- -----------------------------------------------------------------
- -----------------------------------------------------------------
- -----------------------------------------------------------------
- ---------------------------------5-----3-----6-------------------
- ---------------------------------3-----1-----4-------4-4-4-4-4-4-
- ---------------------------------3-----1-----4-------4-4-4-4-4-4-
PM                                                     ...........
- -0-----0-----0---0---0---0---0-----------------------------------
- -5-----5-----5---5---5---5---5-----------------------------------
- -----------------------------------------------------------------
- ---------------------------------5-----3-----6-------------------
- ---------------------------------3-----1-----4-------4-4-4-4-4-4-
- ---------------------------------3-----1-----4-------4-4-4-4-4-4-
PM                                                     ...........


- -----------------------------------------------------------------
- -----------------------------------------------------------------
- -----------------------------------------------------------------
- -2---------------------------------------------------------------
- -2---------------------------------------------------------------
- -0---------------------------------------------------------------
-
- -0-----0-----0---0---0---0---0---0-----0-----0---0---0---0---0---
- -5-----5-----5---5---5---5---5---5-----5-----5---5---5---5---5/--
- -----------------------------------------------------------------
- -----------------------------------------------------------------
- -----------------------------------------------------------------
- -----------------------------------------------------------------


- -----------------------------------------------------------------
- -----------------------------------------------------------------
- -----------------------------------------------------------------
- ---------------------------------5-----3-----5-------6---6-------
- ---------------------------------3-----1-----3-------4---4-------
- ---------------------------------3-----1-----3-------4---4-------
-
- -0-----0-----0---0---0---0---0-----------------------------------
- /12----12----12--12--12--12--12----------------------------------
- -----------------------------------------------------------------
- ---------------------------------5-----3-----5-------6---6-------
- ---------------------------------3-----1-----3-------4---4-------
- ---------------------------------3-----1-----3-------4---4-------


[Riff 8, Guitar 1 & 2] - [02:50] - [03:04]
- -----------------------------------------------------------------
- -----------------------------------------------------------------
- -----------------------------------------------------------------
- -----------------------------------------------------------------
- -2-2---2-2---2-2---2-2---2-2---2-2---2-2---2-2---2-2---2-2-2-2-2-
- -0-0---0-0---0-0---0-0---0-0---0-0---0-0---0-0---0-0---0-0-0-0-0-
PM ...............................................................
- -----------------------------------------------------------------
- -----------------------------------------------------------------
- -----------------------------------------------------------------
- -----------------------------------------------------------------
- -2-2---2-2---2-2---2-2---2-2---2-2---2-2---2-2---2-2---2-2-2-2-2-
- -0-0---0-0---0-0---0-0---0-0---0-0---0-0---0-0---0-0---0-0-0-0-0-
PM ...............................................................


- -----------------------------------------------------------------
- -----------------------------------------------------------------
- -----------------------------------------------------------------
- ---------------------------------------------------6-5-5-5-3-----
- -2-2---2-2---2-2---2-2---2-2---2-2---2-2---2-2---2-x-x-x-x-x-2-2-
- -0-0---0-0---0-0---0-0---0-0---0-0---0-0---0-0---0-4-3-3-3-1-0-0-
PM .................................................           ...
- ------------------------------------------------[5]--------------
- ------------------------------------------------[5]--------------
- ------------------------------------------------[5]--------------
- -----------------------------------------------------------------
- -2-2---2-2---2-2---2-2---2-2---2-2---2-2---2-2-------------------
- -0-0---0-0---0-0---0-0---0-0---0-0---0-0---0-0-------------------
PM .............................................

[Riff 9] - [03:04] - [03:18]
- -[3]--------------------------7---7---------------------------7---7--
- --[3]-------------------------11--11--------------------------11--11-
- ---[3]---------------------------------------------------------------
- ----[3]-----------------------------2--------------------------------
- ------2-2-2-2-2-2-2-2-2-2-2-2-------2-2-2-2-2-2-2-2-2-2-2-2-2--------
- ------0-0-0-0-0-0-0-0-0-0-0-0---0---0-0-0-0-0-0-0-0-0-0-0-0-0---0----
PM      .......................   .     .......................   .

- -[3]--------------------------7---7----------------------------------
- --[3]-------------------------11--11---------------------------------
- ---[3]---------------------------------------------------------------
- ----[3]-----------------------------2--------------------------------
- ------2-2-2-2-2-2-2-2-2-2-2-2-------2-2-2-2-2-2-2-2-2--2--2-2--------
- ------0-0-0-0-0-0-0-0-0-0-0-0---0---0-0-0-0-0-0-0-0-0--0--0-0--------
PM      .......................   .     .......................

[Symbols]

PM... Palm Mute notes with (...) under them
AP... Alternate Pick notes with (...) under them
h     Hammer On
p     Pull Off
[ ]   Harmonic
/     Slide Up
\     Slide Down
x     Dead Note
b     Bend
hb    Hold Bend
pb    Pre-Bend
r     Release Bend
(x )  Play Notes x amount of times
~     Let Ring
\\\   Pick Slide Down
///   Pick Slide Up
/ 3 \ Notes are triplets (3 notes in the space of two)
w\    Whammy Bar Down
w/    Whammy Bar Up
wh    Whammy Bar Hold
T     Right Hand Tap
L     Left Hand Tap

:)
Suggest correction
Creating personal tab
Creating personal tab
You can edit any tab online and save it as your Personal.

You can edit, replace or remove any tab part or add personal notes – all changes will be seen only by you.

Personal tabs can be accessed anytime from any device, even offline.
Learn more »
Give kudos to tab author, rate the tab!
1 2 3 4 5
comments
print report bad tab
guest
You may want to rate the tab now too:
select rating
Wanna post a correction for this tab? Suggest correction