Oops, an error
Loading. Please wait.

Surviving The Times Tab

10 views 1 this week
no commentswrite comment
1 2 3 4 5
3 more votes to show rating
add to favorites
launch autoscroll
font size
0
reset
how to read this tab
guitar tuner
Autoscroll
slow
fast
+/-
esc
set tempo
stop
Help us to improve Ultimate-Guitar.com Take our survey!
×
Author
Difficulty
intermediate
About this tab version
Simplified chord rhythm, missing solo. Was this info helpful? Yes No
[Intro]
e|------------------------------------------------|
B|------------------------------------------------|
G|------------------------------------------------|
D|-----5--x--x---4--x--x----2---------5-5-2-------|
A|-----5--x--x---4--x--x----2---------5-4-2-------|
E|-----3--x--x---2--x--x----0---------3-2-0-------|
                                      . .

[Verse]
e|---------------------------------------------------------------------------|
B|---------------------------------------------------------------------------|
G|---------------------------------------------------------------------------|
D|---------------------------------------------------------------------------| x2
A|----5-5-5-4--4-4-4--5-5-5-2--2-2-2----5-5-5-4--5-4-2-----------------------| 
E|----3-3-3-2--2-2-2--3-3-3-0--0-0-0----3-3-3-2--3-2-0-----------------------|

[Chorus]
e|---------------------------------------------------------------------------|
B|---------------------------------------------------------------------------|
G|---------------------------------------------------------------------------|
D|--3-3-3-3-3-3-3-3--5-5-5-5-6-6-6-6--2--------------------------------------| x2
A|--1-1-1-1-1-1-1-1--3-3-3-3-4-4-4-4--2--------------------------------------|
E|------------------------------------0--------------------------------------|
    . . . . . . . .  . . . . . . . . 

[Verse]
e|---------------------------------------------------------------------------|
B|---------------------------------------------------------------------------|
G|---------------------------------------------------------------------------|
D|---------------------------------------------------------------------------| x2
A|----5-5-5-4--4-4-4--5-5-5-2--2-2-2----5-5-5-4--5-4-2-----------------------| 
E|----3-3-3-2--2-2-2--3-3-3-0--0-0-0----3-3-3-2--3-2-0-----------------------|

[Chorus]
e|---------------------------------------------------------------------------|
B|---------------------------------------------------------------------------|
G|---------------------------------------------------------------------------|
D|--3-3-3-3-3-3-3-3--5-5-5-5-6-6-6-6--2--------------------------------------| x2
A|--1-1-1-1-1-1-1-1--3-3-3-3-4-4-4-4--2--------------------------------------|
E|------------------------------------0--------------------------------------|
    . . . . . . . .  . . . . . . . . 

[Outro]
rhythm varies slightly for outro
e|---------------------------------------------------------------------------|
B|---------------------------------------------------------------------------|
G|---------------------------------------------------------------------------|
D|---------------------------------------------------------------------------| x2
A|----5-5-5-4--4-4-4--5-5-5-2--2-2-2----5-5-5-4--5-4-2-----------------------| 
E|----3-3-3-2--2-2-2--3-3-3-0--0-0-0----3-3-3-2--3-2-0-----------------------|

************************************

| x  Dead note
| .  Palm Mute

************************************
Suggest correction
Give kudos to tab author, rate the tab!
1 2 3 4 5
comments
print report bad tab
guest
You may want to rate the tab now too:
select rating
Wanna post a correction for this tab? Suggest correction