Oops, an error
Loading. Please wait.

Clouds And Cream tab

1,796 views 9 this week
no commentswrite comment
1 2 3 4 5
x 4
add to favorites
×
Save as Personal and add changes to this tab that will be seen only by you. Learn more ›
×
You can save this tab as Personal to edit and correct it or add notes. All changes will be seen only by you. Learn more »
launch autoscroll
font size
0
reset
how to read this tab
guitar tuner
edit
Autoscroll
slow
fast
+/-
esc
set tempo
stop
Author
Difficulty
Clouds & Cream - Sticky Fingers Guitar Tab

Tabbed by: Invoultion (Oliver)

Song Structure:

Intro      1
Verse      1
Verse      2
Chorus     1
Verse      3
Chorus     2
Solo       1
Chorus     3


Intro Lead Guitar (Chorus effect)(Tone set to 0)
e|-----------------|
B|-----------------|
G|-----------------|
D|-----2-2---------|x2
A|---------4-4-4-4-|
E|-4-4-------------|

Intro Rythm Guitar (A bit of Gain)
e|-----4-|
B|----4--|
G|---4---|
D|--6----|x2
A|-6-----|
E|-------|
    G#m

Verse 1, 2 & 3 HARDER VERSION Rythm Guitar (Funky Strumming)
e|-4-| |-x--| |-x-| |-4-| |-x--| |-x--| |--x-|
B|-4-| |-9\-| |-6-| |-4-| |-9/-| |-8/-| |-11-|
G|-4-| |-9\-| |-6-| |-4-| |-9/-| |-8/-| |-11-|
D|-6-| |-9\-| |-6-| |-6-| |-9/-| |-8/-| |-11-|x5
A|-6-| |-7\-| |-4-| |-6-| |-7/-| |-6/-| |--9-|
E|-x-| |-x--| |-x-| |-x-| |-x--| |-x--| |--x-|
  G#m    E     C#    G#m    E      D#     F#

Verse 1, 2 & 3 EASIER VERSION Rythm Guitar (Funky Strumming)
e|---| |---| |---| |---| |---| |---| |----|
B|---| |---| |---| |---| |---| |---| |----|
G|---| |-9-| |-6-| |-4-| |-9-| |-8-| |-11-|
D|-6-| |-9-| |-6-| |-6-| |-9-| |-8-| |-11-|x5
A|-6-| |-7-| |-4-| |-6-| |-7-| |-6-| |--9-|
E|-4-| |---| |---| |---| |---| |---| |----|
  G#m    E     C#   G#m    E     D#     F#
  
Verse 1, 2 & 3 Rythm Guitar Lick (Chorus effect)
e|-----------------|
B|-6-6-6-6/7/9\7\6-|
G|-----------------|
D|-----------------|
A|-----------------|
E|-----------------|

Verse to Chorus Riff Lead Guitar
e|--4---4---4--|
B|--4---5---6--|
G|--4---4---6--|
D|-------------|
A|-------------|
E|-------------|
   G#m  E   C#

Chorus 1 & 2 Lead Guitar (Chorus Effect)(Up then Down Strokes)
e|-4-4--4-4--4-4--4-4--4-4--4-4--4-4--4-4--4-4--4-4--4-4--4-4--3-3--3-3--6-6--6-6-|
B|-4-4--4-4--5-5--5-5--6-6--6-6--6-6--6-6--4-4--4-4--5-5--5-5--4-4--4-4--7-7--7-7-|
G|-4-4--4-4--4-4--4-4--6-6--6-6--6-6--6-6--4-4--4-4--4-4--4-4--3-3--3-3--6-6--6-6-|x2
D|--------------------------------------------------------------------------------|
A|--------------------------------------------------------------------------------|
E|--------------------------------------------------------------------------------|
   G#m       E         C#                  G#m       E         D#        F#     

Guitar Solo (More Gain)
e|-------------------------------------------------------------------------------------------|
B|-------------------------------------------------------------------------------------------|
G|-------------------------------------------------------------------------------------------|
D|-------------------------------------------------------------------------------------------|
A|---------2-4--------2-2-2--4-4-4--2-4-4-4-2-2-2----------2-4-------2-2-2-6-6-6---6/9-9-9-9-|
E|-4-4-4-4-----0-0-0-------------------------------4-4-4-4-----0-0-0-------------------------|

Chorus 3 Lead Guitar (Chorus Effect)(Strumming)
e|-4-| |-4-| |-4-|
B|-4-| |-5-| |-6-|
G|-4-| |-4-| |-6-|
D|---| |---| |---|
A|---| |---| |---|
E|---| |---| |---|
  G#m    E     C#

Key

/ = Slide Up
\ = Slide Down

            
            
Suggest correction
Creating personal tab
Creating personal tab
You can edit any tab online and save it as your Personal.

You can edit, replace or remove any tab part or add personal notes – all changes will be seen only by you.

Personal tabs can be accessed anytime from any device, even offline.
Learn more »
comments
print report bad tab
guest
You may want to rate the tab now too:
select rating
Wanna post a correction for this tab? Suggest correction