Oops, an error
Loading. Please wait.

Gold Snafu tab

version 1
version 1

Whole song

4,015 views 69 this week
no commentswrite comment
1 2 3 4 5
x 4
add to favorites
×
Save as Personal and add changes to this tab that will be seen only by you. Learn more ›
×
You can save this tab as Personal to edit and correct it or add notes. All changes will be seen only by you. Learn more »
launch autoscroll
font size
0
reset
how to read this tab
guitar tuner
edit
Autoscroll
slow
fast
+/-
esc
set tempo
stop
Author
Difficulty
-------------------------------------------------------------------------------
                             Gold Snafu - Sticky Fingers
-------------------------------------------------------------------------------

Tabbed by: Oliver
E-mail: oly.rbsc@gmail.com

Tuning: Standard

Intro (-- BASS --):
G|---------------------------------------------------------------------------|
D|---------2-5------------7----7-------------2-5------------7----7-----------|
A|-3-----3--------5-----5----5-------3-----3--------5-----5----5-------------|
E|---------------------------------------------------------------------------|

Verse Riff 1 (-- GUITAR --):
e|--20-17----17---------------------------17-17----17------------------------|
B|--------20----17--20--------------------------20----17--20-----------------|
G|---------------------19--17--------------------------------19--------------|
D|----------------------------19---------------------------------------------|
A|---------------------------------------------------------------------------|
E|---------------------------------------------------------------------------|

Verse Riff 1 (-- BASS --):
G|---------------------------------------------------------------------------|
D|----------2-5------------7-------------------------------------------------|
A|--3-----3--------5---3h5---7-5h0-------------------------------------------|
E|---------------------------------------------------------------------------|

Verse Riff 2 (-- GUITAR --):
e|--3----------------3/5------5--5-----------3----------------3/5------5--5--|
B|--5--(hold)--------5/6------6--6-----------5--(hold)--------5/6------6--6--|
G|--5----------------5/7------7--7-----------5----------------5/7------7--7--|
D|---------------------------------------------------------------------------|
A|---------------------------------------------------------------------------|
E|---------------------------------------------------------------------------|

Chorus Riff (-- GUITAR --):
e|--0---------------0---------------1----------------------------------------|
B|--1---------------0---------------3----------------------------------------|
G|--2---------------0---------------2----------------------------------------|
D|--3---------------2---------------0----------------------------------------|
A|------------------2--------------------------------------------------------|
E|---------------------------------------------------------------------------|

Chorus Riff (-- BASS --):
G|---------------------------------------------------------------------------|
D|---------------------------------------------------------------------------|
A|------------------------------------3-5-5--3-5-5--3-3-5-5--(hold)----------|
E|--1--1-1-1-1-1-1---3-0-0-0-0-0-0--1----------------------------------------|

Guitar Solo (-- GUITAR --)
e|------------------------10-12--10------------------------------------------|
B|--13-10----10-13--10-13-----------13-10-13-10---10--13-10----10-13--10-13--|
G|--------12------------------------------------12----------12---------------|
D|---------------------------------------------------------------------------|
A|---------------------------------------------------------------------------|
E|---------------------------------------------------------------------------|

Guitar Solo conutinued...
e|--10-12--10----------------------------------------------------------------|
B|------------13-10-13-10----10\---------------------------------------------|
G|------------------------12-------------------------------------------------|
D|---------------------------------------------------------------------------|
A|---------------------------------------------------------------------------|
E|---------------------------------------------------------------------------|


************************************

| /   slide up
| \   slide down
| h   hammer-on
| p   pull-off
| ~   vibrato
| +   harmonic
| x   Mute note
| b   Bend
| pb  Pre-bend
| br  Bend release
| pbr Pre-bend release
| brb Bend release bend

************************************

            
            
Suggest correction
Creating personal tab
Creating personal tab
You can edit any tab online and save it as your Personal.

You can edit, replace or remove any tab part or add personal notes – all changes will be seen only by you.

Personal tabs can be accessed anytime from any device, even offline.
Learn more »
comments
print report bad tab
guest
You may want to rate the tab now too:
select rating
Wanna post a correction for this tab? Suggest correction